Popotitos

Acordes de la canción 'Popotitos' de Charly García

Versiones de esta canción: Tablatura para guitarra (TAB) - Letra y acordes - Letra y acordes

Popotitos


Riff 1  x4
E------------------------------------------
B------------------------------------------
G------------------------------------------
D---------------------2-2-0--------------
A---------------2-4-----------4-2--------
E-----0-0-3-4----------------------------

Riff 2  x4
E------------------------------------------
B------------------------------------------
G---------------------2-2-0--------------
D---------------2-4-----------4-2--------
A-----0-0-3-4----------------------------
E------------------------------------------


E---------------------------------------------
B---------------------------------------------
G---------------------------------------------
D---------------------------------------------
A------------6-6--7-7-8--9-----------------
E------7-7-----------------------------------


E---------------------------------------------
B---------------------------------------------
G---------------------------------------------
D---------------------------------------------
A---------4-4-5-5-6--7---------------------
E----5-5--------------------------------------



Repita riff 1 x1
Versión 2 - Popotitos (Letra y acordes)
Seru Giran                                    
POPOTITOS                                     

Rif en E


E5                                    Riff en E
Mi amor entero es de mi novia popotitos
E5                                    Riff en E
sus piernas son como un par de carrilitos
A5                                    Riff en A
y cuando a las fiestas la llevo a bailar
E5 Riff en E
sus piernas flacas se parecen quebrar

B5 A5
ahh mi popotitos no es un primor
B5 A5
pero baila que da pavor
E5                            Riff en E
a mi popotitos yo le di mi amor

Cuando hay aire fuerte ella parece volar
en plen lluvia no se va a mojar
con popotitos me voy a casar
de aqui en adelante la voy a delirar

ahh mi popotitos no es un primor
pero baila que da pavor
a mi popotitos yo le di mi amor

Popotitos baila rock and roll
no la ves ni con la luz del sol
a mi quaranta yo le di mi amor
bajame las luces que hace mucho calor

ahh mi popotitos no es un primor
pero baila que da pavor
a mi popotitos yo le di mi amor
a mi popotitos yo le di mi amor
a mi popotitos yo le di mi amor

El Bajo hace un riff al final de cada oracion.
Cuando la tonica es E5 el riff es:

G/-----------------------------------
D/---------------2-2--0--------------
A/----------2--4--------4--2--4------    
E/--0-0-2-4----------------------2--4 

Este seria el riff en A

G/---------------2-2--0--------------
D/----------2--4--------4--2--4------    
A/--0-0-2-4----------------------2--4
E/-----------------------------------

En la parte que hace B5 y A5
el bajo efectua tonicas.
Si metes algun vibrato o
algun slap que espectacular.

Este es un gran tab y es mio de Martin Tummino
Versión 3 - Popotitos (Letra y acordes)
Esta parte (RIFF 1) es rapida y después va el otro punteo
Mas abajo les digo el orden de los Riff
INTRO

Riff 1
E------------------------------------------
B------------------------------------------
G------------------------------------------
D------------------------------------------
A----9--9--9--9--9---7--7--7--7--7---------
E----7--7--7--7--7---5--5--5--5--5---------


Riff 2  x2
E------------------------------------------
B------------------------------------------
G------------------------------------------
D---------------------2-2-0----------------
A---------------2-4-----------4-2-2--------
E-----0-0-3-4------------------------3-4---


Riff 3  x2
E------------------------------------------
B------------------------------------------
G---------------------2-2-0----------------
D---------------2-4-----------4-2-2--------
A-----0-0-3-4------------------------3-4---
E------------------------------------------

Intro

E                                        Riff 2 x1
Mi amor entero es de mi novia popotitos
E                                         Riff 2 x1
sus piernas son como un par de carrilitos
A                                     Riff 3 x1
y cuando a las fiestas la llevo a bailar
E                                     Riff 2 x1
sus piernas flacas se parecen quebrar

B                  A
popotitos no es un primor
B                 A
pero baila que da pavor
E                            Riff 2 x1
a mi popotitos yo le di mi amor


(como estrofa 1)

Popotitos baila rock and roll
Y no la ves ni con la luz del sol
Es tan delgada que me hace pensar
Que en plena lluvia no se va a mojar

B                  A
popotitos no es un primor
B                 A
pero baila que da pavor
E                            Riff 2 x1
a mi popotitos yo le di mi amor

(como estrofa 1)

Cuando hay aire fuerte ella parece volar
A miss universo nunca va a llegar
con popotitos me voy a casar
de aqui en adelante la voy a alimentar

B                  A
popotitos no es un primor
B                 A
pero baila que da pavor
E                            Riff 2 x1
a mi popotitos yo le di mi amor


final
riff1
riff 2 x2 (acompañando en E)


ESTE TEMA SE LO DEDICO AL GRUPO ALMA Y FE DE NEUQUEN
PORQUE SON UNOS GROSOS!!!
LO TOCAMOS UNA VEZ Y SALIO ESPECTACULAR!!
SALUDOS A LOS SCOUT DE ARGENTINA!!!!!!!

El material contenido en esta página es para exclusivo uso privado y con propósito meramente educativo, se prohibe su reproducción y uso con fines comerciales