De mí

Acordes de la canción 'De mí' de Charly García

Versiones de esta canción: Letra y acordes - Tablatura para guitarra (TAB) - Acordes para piano o teclado (con notas)

Intro

e-------------------------------------------------------
b--3h5p3-3s12------12------12----1h3p1-1s8-----8-----8-- |
g-------------0-12----0-12----12-----------0-7---0-7---7 | X 4
d------------------------------------------------------- |
a------------------------------------------------------- |
E-------------------------------------------------------/

D C G

G                             C  G   Riff 1
Cuando estes mal cuando estes sola
G                        C   Bb
cuando ya estes cansada de llorar
Em                D        F           C          G  Riff 2 D C G
no te olvides de mi porque se que te puedo estimular
                      C  G  Riff 1 D C G
cuando me mires a los ojos
                       C    G
y mi mirada este en otro lugar
Em                D        F           C          G  Riff 2 y 3
no te acerques a mi porque se que te puedo lastimar

C                      Bb
no pienses que estoy loco
Riff 4
es solo una manera de actuar
C                      Bb
no pienses que estoy solo
A7                   D7
estoy comunicado con todo lo demas
        G
por eso!

G                             C  G   Riff 1
Cuando estes mal cuando estes sola
G                        C   Bb
cuando ya estes cansada de llorar
Em                D        F           C          G  Riff 2 D C G
no te olvides de mi porque se que te puedo estimular

C    Bb    G

C   Bb     A7     D7

e--------------------------------------------------------10s12-10---------
b--10-12-10-12-10-12----10s13-10----10-12-10-12-10-12-------------11-10---
g--------------------12----------12-------------------12----------------12
d-------------------------------------------------------------------------
a-------------------------------------------------------------------------
E-------------------------------------------------------------------------
Em                D        F           C          G
no te olvides de mi porque se que te puedo estimular

e--3-5s7-5-3-5--0-3-6--0-3-6-0-6-0-3--
b-------------------------------------
g-------------------------------------
d-------------------------------------
a-------------------------------------
E-------------------------------------


e-------------------------------------------------------
b--3h5p3-3s12------12------12----1h3p1-1s8-----8-----8-- |
g-------------0-12----0-12----12-----------0-7---0-7---7 | X 2
d------------------------------------------------------- |
a------------------------------------------------------- |
E-------------------------------------------------------/



riff 1:     riff 2:     riff 3:     riff 4:


e-------|   e---------| e-------|   e--3-1-3-3-3-3s5s3-3-3-3s1|
b-------|   b--------0| b--0-1-3|   b-------------------------|
g-------|   g--0-0----| g-------|   g-------------------------|
d--0-3-5|   d------3--| d-------|   d-------------------------|
a-------|   a---------| a-------|   a-------------------------|
E-------|   E---------| E-------|   E-------------------------|


Bueno aca les esta exelente cancion del mas grande

cuidense
Versión 2 - De mí (Tablatura para guitarra (TAB))
los arreglos y punteos de este tema los saque de la
 transcripcion de piano q hay, lo unico q hago es
pasarlo a guitarra

Intro:

e---------7-7-------------3-3-
b-3h5p3-3--------1h3p1-1------
G-----------------------------
D-----------------------------
A-----------------------------
E-----------------------------

e---------7-7-------------3-3-------3-
b-3h5p3-3--------1h3p1-1--------3-1-0-
G-----------------------------------0-
D-----------------------------------0-
A-----------------------------------2-
E-----------------------------------3-



G                                C   G   Riff
  Cuando estes mal cuando estes sola

G                                C   Bb
  cuando ya estes cansada de llorar
Em                 D        F           C          G       D C G
 no te olvides de mi porque se que te puedo estimular

cuando me mires a los ojos
y mi mirada este en otro lugar
no te acerques a mi porque se que te puedo lastimar

C                      Bb
no pienses que estoy loco
    G
es solo una manera de actuar
C                      Bb
no pienses que estoy solo
A7                   D7
estoy comunicado con todo lo demas

por eso!

cuando estes mal cuando estes sola
cuando ya estes cansada de llorar
no te olvides de mi porque se que te puedo estimular

C    Bb    G

C   Bb     A7     D7

e--------------------------------------------------12-10-----
b--10-12-10-12-10-12-10-13-10--10-12-10-12-10-12-10-------11-
G------------------------------------------------------------
D------------------------------------------------------------
A------------------------------------------------------------
E------------------------------------------------------------

no te olvides de mi porque se que te puedo estimular

e---5-7-5---5-0---5------5------------
b-8-------8-----8---5-8---8--8--5-8---
G-------------------------------------
D-------------------------------------
A-------------------------------------
E-------------------------------------


Intro


riff:


e-------
b-------
G-------
D--0-3-5
A-------
E-------

bueno, esto es todo, espero q sirva..


chaussssssss
Versión 3 - De mí (Acordes para piano o teclado (con notas))
La primer linea es la de los acordes y la segunda
es de las notas, deberia haberlas diferenciado entre
cifrado y Do Re Mi, etc pero asi se entiende igual,
los acordes solo estan para que sepan de donde salen
las notas y tengan todo junto, pero igual la
transcripcion ya la hizo Alejandro Mauro
y esta muy bien, espero que entiendan todo, suerte
     chau!!


Intro: (D E D D B B   B C B B G G)  x8  las primeras 4 veces en la octava siguiente
a la central y las ultimas 4 veces en la central

   G                                C-G
D-C   A  B    A   B     A  B    A   C B-(A-G) arreglo en la octava mas abajo de la central: D-F-G
    cuando estes mal, cuando estes solo

G                         C  - Bb9
   A  B  A    B   A  B A  E   D Bb
 cuando ya estés cansado de llorar

         Em       D         F          C          G  D-C/D
 G  A    B A   G  A  E   G  A   E  G   A G    G E G
no te olvides de mi porque se que te puedo estimular

repite la misma secuencia para la estrofa que sigue y el puente


       C                    Bb9      G
B C D  C   C  C   Bb    A   A G  G   G G G G  G A G  G   G F
      no pienses que estoy loco  es solo una manera de actuar

 C                    Bb9    A7                D7/9+
 C   C  C   Bb    A   A G G  G   A A B B C  C   D D  E  E F#   F# G F#
no pienses que estoy solo estoy comunicado con todo lo demás, por eso


repite la misma secuencia que primer estrofa

Solo: repite la secuencia de la segunda estrofa

         Em       D         F          C          G  D-C/D
 G  A    B A   G  A  E   G  A   E  G   A G    G E G
no te olvides de mi porque se que te puedo estimular

Solo: G  A    B A   G  A  E   G  A   E  G   A G    G E G

intro

El material contenido en esta página es para exclusivo uso privado y con propósito meramente educativo, se prohibe su reproducción y uso con fines comerciales