Raros peinados nuevos

Acordes de la canción 'Raros peinados nuevos' de Charly García

Versiones de esta canción: Tablatura para bajo (bass tab) - Letra y acordes - Letra y acordes - Tablatura para guitarra (TAB) - Notas para armónica

Intro x1
|----------------|----------------|----------------|----------------|
|----------------|----------------|----------------|----------------|
|----------------|3-----3-3-------|----------------|3-----3-3-------|
|3-----3-3-------|----------------|3-----3-3-------|----------------|

|----------------|----------------|----------------|----------------|
|----------------|----------------|----------------|----------------|
|----------------|3-----3-3-------|----------------|3-----3-3-------|
|3-----3-3-------|----------------|3-----3-3-------|----------------|

Verso x1
|----------------|----------------|----------------|----------------|
|----------------|----------------|----------------|----------------|
|----------------|3-----3-3-------|----------------|3-----3-3-------|
|3-----3-3-------|----------------|3-----3-3-------|----------------|

|----------------|----------------|----------------|----------------|
|----------------|----------------|----------------|----------------|
|----------------|3-----3-3-------|----------------|----------------|
|3-----3-3-------|----------------|3-----3-3-------|3-----3-3-------|

Estribillo A x1
|----------------|----------------|----------------|----------------|
|----------------|----------------|----------------|----------------|
|1-----1-1-------|----------------|3-----3-3-------|3-----3-3-------|
|----------------|1-----1-1-------|----------------|----------------|

|----------------|----------------|----------------|----------------|
|----------------|----------------|----------------|----------------|
|10----1010------|8-----8-8-------|----------------|3-----3-3-------|
|----------------|------------6---|3-----3-3-------|----------------|

Pre verso x1
|----------------|----------------|
|----------------|----------------|
|----------------|3-----3-3-------|
|3-----3-3-------|----------------|

Verso x1
Estribillo B x1
|----------------|----------------|----------------|----------------|
|----------------|----------------|----------------|----------------|
|1-----1-1-------|----------------|3-----3-3-------|3-----3-3-------|
|----------------|1-----1-1-------|----------------|----------------|

|----------------|----------------|----------------|----------------|
|----------------|----------------|----------------|----------------|
|10----1010------|8-----8-8-------|----------------|----------------|
|----------------|------------6---|3-----3-3-------|3-----3-3-------|

Puente x1
|----------------|----------------|----------------|----------------|
|----------------|----------------|----------------|----------------|
|6-----6-6---5---|------5-5-------|4-----4-4-------|3-----3-3-------|
|----------------|----------------|----------------|----------------|

|----------------|----------------|----------------|----------------|
|--------3-------|----------------|----------------|----------------|
|5-----5---------|----------------|----------------|----------------|
|------------3---|----------------|5-----5-5-------|----------------|

Verso x1
Estribillo B x1
Puente x1
Intro hasta el final
|----------------|----------------|----------------|----------------|
|----------------|----------------|----------------|----------------|
|----------------|3-----3-3-------|----------------|3-----3-3-------|
|3-----3-3-------|----------------|3-----3-3-------|----------------|
Versión 2 - Raros peinados nuevos (Letra y acordes)
Intro: Gm - Csus4

     Gm
Y si vas a la derecha
      Csus4                        Gm
Y cambias hacia la izquierda ¡adelante!
      Gm
Es mejor que estarse quieto
     Csus4                Gm
Es mejor que ser un vigilante
      Bb                      F
Si me gustan las canciones de amor
     C                      Cm
y me gustan esos raros peinados nuevos
      Gm
Ya no quiero criticar
       F                 Gm       Csus4
Solo quiero ser un enfermero

Oh Oh Oh Oh Oh

y si trabajas al pedo
y estas haciendo algo nuevo ¡adelante!
y si cantas a la luna
y perdes la vida en un instante
Si luchaste por un mundo mejor
y te gustan esos raros peinados nuevos
no quiero ver al doctor
solo quiero ver al enfermero.

Ebmaj7              C/D
Dame un poquito de amor
             Bbm6/Db     C7
No quiero un toco
Dm7              Gm
Quiero algo de razon
             A7/b13
No quiero un loco
Apaga el televisor

Si lo que te gusta es gritar
desenchufa el cable del parlante
el silencio tiene accion
el mas cuerdo es el mas delirante
me gustaban las canciones de amor
me gustaban esos raros peinados nuevos
de chiquito fui aviador
pero ahora soy un enfermero...

Como La Intro De Nuevo.

Es facil

Aguante SKA-P

Acordes: De la cuerda 1 a la 6 (de e a E).

Csus4:   1 - 1 - 0 - 3 - 3 - 0

Ebmaj7:  x - 4 - 3 - 4 - 2 - x

Bbm6/Db: 3 - 4 - 3 - 3 - 6 - 3

A7/b13:  x - 0 - 5 - 5 - 6 - x
Versión 3 - Raros peinados nuevos (Letra y acordes)
INTRO Gm-C (x3)

      Gm
Y si vas a la derecha
       C                         Gm   C
y cambiás hacia la izquierda, adelante.
      Gm
Es mejor que estarse quieto
      C                 Gm   C
es mejor que ser un vigilante


       A#                       F
Si me gustan las canciones de amor
      C                    Cm
y me gustan esos raros peinados nuevos
         Gm
ya no quiero criticar
        F                Gm  C
sólo quiero ver al enfermero.

         Gm    C
UH OH UH OH OH

       Gm
Y si trabajás al pedo
         C                      Gm   C
y estás haciendo algo nuevo, adelante.
      Gm
Y si cantas a la luna
      C                   Gm  C
y perdés la vida en un instante


       A#                   F
si luchaste por un mundo mejor
      C                    Cm
y te gustan esos raros peinados nuevos
        Gm
no quiero ver al doctor
        F                Gm
sólo quiero ver al enfermero.


Dm                    Gm
Dame un poquito de amor
              C
no quiero un toco
Dm                 Gm
Quiero algo de razón
              B7
no quiero un loco.



Apagá el televisor
        Gm
Si lo que te gusta es gritar
       C                   Gm   C
desenchufa el cable del parlante.
      Gm
El silencio tiene acción
         C                  Gm  C
el mas cuerdo es el más delirante.


       A#                      F
Me gustaban las canciones de amor
       C                   Cm
me gustaban esos raros peinados nuevos
       Gm
de chiquito fui aviador
       F                Gm  C
pero ahora soy un enfermero.

FINAL Gm-C-Gm

C
1---8----
2---8----
3---8----
4---10---
5-- 10---
6---8----

Espero que les guste esta versión y aguante charly!

Nico
Versión 4 - Raros peinados nuevos (Tablatura para guitarra (TAB))
Riff1 G5 C5 (x4)

Riff1

    G5                      C5
Y si vas a la derecha y cambias hacia la izquierda,
      G5  Riff2
¡adelante!
      Gm                          C5
Es mejor que estarse quieto es mejor que ser un 
     Gm  Riff2
vigilante.
       Bb                     F          C
Si me gustan las canciones de amor y me gustan esos 
         Cm                 Gm
raros peinados nuevos ya no quiero criticar solo 
 F                  Gm    
quiero ser un enfermero.
Oh oh oh oh oh

Riff1

Y si trabajas al pedo y estas haciendo algo nuevo ¡adelante! 
y si cantas a la luna y perdes la vida en un instante.
Si luchaste por un mundo mejor y te gustan esos raros peinados nuevos, 
no quiero ver al doctor sólo quiero ver al enfermero.

Bsus4                   Dsus2/C        C#7    C7
Dame un poquito de amor, no quiero un toco. 
Dm7               Gm              A7
Quiero algo de razon no quiero un loco , apaga el televisor.

Riff1

Si lo que te gusta es gritar desenchufa el cable del parlante.
El silencio tiene accion el mas cuerdo es el mas delirante.
Me gustaban las canciones de amor, me gustaban esos raros peinados nuevos.
De chiquito fui aviador pero ahora soy un enfermero.
DO DO DO DO DO DO

Riff1 G5 C5 (x12)

Referencias

    h=Ligadura
(1/4)=Estirar 1/4 de nota


e |----------------|
B |---------3(1/4)-|
G |---------3(1/4)-|
D |-----3----------|
A |-3h5---5--------|
E |----------------|
        Riff1

e |---------------------|
B |---------------------|
G |---------------------|
D |-5--3-5-3------------|
A |----------5--3-3-1-3-|
E |---------------------|
       Riff2 (Teclado)

e |---6--------5------4-----3---1----3----3-----------1---1---0---3---|
B |---6--------5------6-----5---1----3----2-----------3---1---1---4---|
G |---8--------5------4-----3---2----3----0-----------3---2---0---5---|
D |---8--------7------6-----5---0----2----2-------5---3---3---2---5---|
A |---6--------5------4-----3--------2--------5---3---1---3---3---3---|
E |---6--------5------4-----3--------3--------3-------1---1-------3---|
    Bbsus4  Dsus2/C  C#7   C7  Dm7  Gm   A7  G5  C5  Bb   F   C  Cm
Versión 5 - Raros peinados nuevos (Notas para armónica)
   |(4)(4)(6)(6)(6)(6)(6)(4)
   |(4)(4) 4  4  4  4  4  4  4  4 (4)
   |(4)(4)(6)(6)(6)(6)(6)(4)
(A)|(4)(4) 4  4  4  4  4  4  4 (4)
x2 |
   |(4)(4)(5)(5)(5)(5)(5) 6 (6) 6
   | 6 (4) 6 (4) 6 (4) 6 (4) 6 (6)(4)(6)(4)
   |(4)(4)(6)(6)(6)(6)(6)
   | 4  4  4  4  4  4  4  4  4 (4)

     7  7  7  7  7 (6)(8)
    (6) 6 (5)(6) 6
     7  7  7  7  7 (6)(8)
    (6) 6 (5)(6) 6
    (6)(6)(6)(6)(6)(6)(6)

Ax1

El material contenido en esta página es para exclusivo uso privado y con propósito meramente educativo, se prohibe su reproducción y uso con fines comerciales