Pasajera en Trance

Acordes de la canción 'Pasajera en Trance' de Charly García

Versiones de esta canción: Letra y acordes - Notas para armónica - Acordes para piano o teclado (con notas) - Tablatura para guitarra (TAB) - Letra y acordes - Tablatura para guitarra (TAB) - Tablatura para guitarra (TAB) - Tablatura para bajo (bass tab)

INTRO:

e|-----------------------------------------------------------------------
b|-17-13-15---13-15--17-13-15--13-13-15-13--17-13-15--13-17-15-*12-10-8*
g|---------14----------------14---------------------14-----------------
esto va dos veces (lo que va *12-10-8* va mas rapido)

2da parte
e|---------------------------15-15-13-12-13-12-----15
b|13-12-13-12-13-13-12--12-15-----------------13-12--

e|---------------------------15-15|
b|13-12-13-12-13-13-12--12-15-----|

aqui arranca la letra

(1)
LAm           FA     SOL
Ella esta por embarcar
           REm       FA          SOL
quizás consiga un pasaje en la borda.
LAm            FA   SOL
Ella esta por despegar
          REm-FA-SOL
ella se vaaa...

(2)
Ella viaja sin parar,
el viejo truco de andar por las sombras.
Ella baila sobre el mar, ella se va.

Coro:
RE
 Pasajera en trance,
              SOL        FA-RE
pasajera en tránsito perpetuo.
RE
 Pasajera en trance,
             SOL            FA-RE
transitando los lugares ciertos.

Un amor real
es como dormir y estar despierto.
Un amor real
           G           C
es como vivir en aeropuertos.

Fin: Se repite el intro
Versión 2 - Pasajera en Trance (Notas para armónica)
Armonica en do
Intro:
5 4 (4) 4 5 (4)
5 4 (4) 4 5 5 5 
5 4 (4) 4 5 (4)
5 4 (4) 4 4 
5 4 (4) 4 5 (4)
5 4 (4) 4 5 5 6 6 

4 4 4 4 4 (3)
(3)(3)6 (5)5(5)5(5)5 6 
4 4 4 4 4 (3)
(3)(3) 6 6 

4 4  4    4    4  (3)
Ella esta por embarcar
(3)(3) 6 6   (5) 5 (5)  5 (5)  5  6
Quizaz consiga un pasaje en la borda
Ella esta por despegar
(3)(3) 6 6  (6)b
Ella se va....

Ella viaja sin parar
El viejo truco de andar por la sombra
Ella baila sobre el mar
Ella se va.....

(3)(3)4 (4) 4  4
Pasajera en trance
4 4 (4) 5 (5) 5 (4) 4 (5) 4
Pasajera en transito perpetuo
Pasajera en trance
Transitando los lugares ciertos

(3)(3)4 (4)4
Un amor real
4 4 (4) 5 (5) 5 (4) 4 (5) 4
Es como dormir y estar despierto
Un amor real
Es como vivir en aeropuerto....

Repite la intro...
Versión 3 - Pasajera en Trance (Acordes para piano o teclado (con notas))
Este tema ya existe entre sus archivos, incluso para 
teclados, pero ninguno esta totalmente correcto ni 
tan detallado como el que se encuentra a continuación. Sino pruébenlo.


Los acordes del tema (mano izquierda) están entre la 
letra y las notas (mano de derecha) de la melodía por
 debajo. La melodía está en cifrado americano para 
mayor rapidez en la escritura.

A	B	C	D	E	F	G	
La	Si	Do	Re	Mi	Fa	Sol	

Intro
e - c - d - a -c- d, e - c - d - a -c- d - d -c, e - c
 - d - a - c - e, d,  b - a - g. e - c - d - a -c- d,
 e - c - d - a -c- d, e - c - d -
 a - c - e, d,  b - a - g. 
c - b - c - b - c - c - b ,  b - d - g - g - f - e - 
f - e - c - b - g ,  c - b - c - b - c - c - b ,  b - 
d - g - g 

Estrofa

E(Lam)lla está por em(Fa)bar(Sol)car, 
Do-si-do-si-do-do-si
quizás con(Rem)siga un pa(Fa)saje en la bor(Sol)da. 
si-re-sol-sol-fa-mi-fa-mo-do-si-sol
E(Lam)lla está por des(Fa)pegar(Sol), 
do-si-do-si-do-do-si
ella se va(Rem, Fa, Sol). 
si-re-sol-sol

E(Lam)lla viaja sin(Fa) pagar(Sol), 
Do-si-do-si-do-do-si
el viejo tru(Rem)co de andar(Fa) por la som(Sol)bra. 
si-re-sol-sol-fa-mi-fa-mo-do-si-sol
E(Lam)lla baila so(Fa)bre el (Sol)mar, 
do-si-do-si-do-do-si
ella se va(Rem, Fa, Sol). 
si-re-sol-sol

Estribillo

(Re)Pasajera en trance, 
fa#-fa#-sol-la-sol-fa#
pasajera en (Fa)tránsito perpe(Sol)tuo(Re). 
fa#-fa#-sol-la-do-sol-sol-fa-sol-re

(Re)Pasajera en trance, 
fa#-fa#-sol-la-sol-fa#
transitando (Fa)los luga(Sol)res ciertos(Re). 
fa#-fa#-sol-la-do-sol-sol-fa-sol-re

(Re)Un amor real, es cómo dor(Fa)mir 
fa#-fa#-sol-la-sol, fa#-fa#-sol-la-do-
y estar despie(Sol)rto(Re)
sol-sol-fa-sol-re
(Re)Un amor real    es como (Fa)vivir 
fa#-fa#-sol-la-sol, fa#-fa#-sol-la-do-
en aeropuer(Sol)to(Re).
sol-sol-fa-sol-re

Outro

e - c - d - a -c- d, e - c - d - a -c- d - d -c, e 
- c - d - a - c - e, d,  b - a - g. 
e - c - d - a -c- d, e - c - d - a - b - d - g - g
c - b - c - b - c - c - b ,  b - d - g - g - f - e - 
f - e - c - b - g ,  c - b - c - b - c - c - b , 
 b - d - g - g 
e - c - d - a -c- d, e - c - d - a -c- d - d -c, 
e - c - d - a - c - e, d,  b - a - g. 
e - c - d - a -c- d, e - c - d - a -c- d, e - c - 
d - a - c - e, d,  b - a - g. (se va perdiendo)

Espero que les sirve, cualquier duda o sugerencia: 
demasiadoego99@hotmail.com
Aguante Charly y Led Zeppelin!!!!!!!!
Versión 4 - Pasajera en Trance (Tablatura para guitarra (TAB))
esta es una manera personal de tocar este tema de charly
que me encanta(del disco que grabó con Pedro Aznar en el 85),
pienso que es uno de sus mejores obras tiene unos detalles
que note que a las otras les falta

comienza con la batería y un synth tocando:
LAm, FA, SOL, REm, FA, SOL...

intro teclado(medio rapido)

1ra parte
e|-----------------------------------------------------------------------
b|-17-13-15---13-15--17-13-15--13-13-15-13--17-13-15--13-17-15-*12-10-8*
g|---------14----------------14---------------------14-----------------
esto va dos veces (lo que va *12-10-8* va mas rapido)

2da parte
e|---------------------------15-15-13-12-13-12-----15
b|13-12-13-12-13-13-12--12-15-----------------13-12--

e|---------------------------15-15|
b|13-12-13-12-13-13-12--12-15-----|

aqui arranca la letra

verso:
LAm           FA    SOL
ella esta por embarcar
           REm       FA          SOL
quizas consiga un pasaje en la borda
LAm            FA   SOL
ella esta por despegar
          REm-FA-SOL
ella se vaaa...

los cuatro versos van igual (durante los versos en el fondo se
escucha que un teclado lleva la armonia de la voz, esto se
puede hacer con otra guitarra tocando la 2da parte del intro)

coro:
RE
pasajera en trance
             SOL         FA
pasajera en transito perpetuo

las cuatro veces va igual (al final cuando dice aeropuerto
alarga la segunda e (dice aeropueeeeeerto) y mientras se escucha
un pasaje en la cuerda de Si que va de La a Do y a Re y es asi
b|10-13-15 y luego luego vuelve al intro pero con estos
cambios...)

e|----------------------------------------------------------15
b|17-13-15--13-15--17-13-15--13-13-15-13--17-13-15--13-17-15--
g|--------14---------------14---------------------14----------

se toca primero asi y la segunda vez se toca igual que en el intro
la segunda parte se toca igual...

cuando la bateria cambia la tarola por el tambor se hace esto

e|--------------------------------------------------------------
b|17-13-15--13-15--17-13-15--13-15--17-13-15--13-17-15-*12-10-8*
g|--------14---------------14---------------14------------------

nota: durante toda la cancion se escucha en el fondo un teclado
que lleva la melodia de la voz esto se puede hacer con una segunda
guitarra, en el verso va como la 2da parte del intro y en el
coro va asi...

b|------------------------------13-------------|
g|11-11-12-14-12-11--11-11-12-14--12-12-10-12-7|

creo que eso es todo estoy seguro que tocandola bien suena
casi identico a la version del cd, se aceptan dudas comentarios quejas
es mi 1er tab asi que con piedad.

ando buscando bajista y baterista de entre 15 y 18 años en
tijuana b.c mex con influencias de charly fito calamaro
sui generis etc. para zapar. contactenme

entren a http://artedesuelo.blogspot.com

eso es todo chau. aguante el aguante
Versión 5 - Pasajera en Trance (Letra y acordes)
Acordes:

Fmaj7: xx3210
Am7: x02010
G: 320003
Dm7: xx0211
F: xx3211
Dm7/C: x30211
D: xx0323
F6/9: xx3233

Intro: (Fmaj7 Am7 Fmaj G) x2
       (Fmaj7-Am7-G-Dm7-F-G) Fmaj7-Am7-G Dm7/C Dm7 Dm7/C Dm7

Esta intro con acordes acompaña a la melodía de los teclados...
Escuchen bien los cambios.

Verso:

Fmaj7       Am7     G
ella está por embarcar
           Dm7       F            G
quizás consiga un pasaje en la borda
Fmaj7       Am7     G
ella está por despegar
          Dm7 F G
ella se vaaa...

los cuatro versos van igual (durante los versos en el fondo se
escucha que un teclado lleva la armonia de la voz, esto se
puede hacer con otra guitarra tocando la 2da parte del intro)

Coro:

D
pasajera en trance
             G         F6/9   D
pasajera en tránsito perpe...tuo

Idem el resto de los coros... En el último acorde D,
arpegiar desde la tercera a la quinta cuerda.

y luego vuelve la intro.


Saludos!! espero les agrade. Cualquier sugerencia, duda,
consulta, puteada, etc. me ubican. CHAU!
Versión 6 - Pasajera en Trance (Tablatura para guitarra (TAB))
Intro:
imitacion del piano
MI----12--10------10----12--10----------10----
Si------13--10--13--------13--10--13--13--13--
SOL-------------------------------------------
RE--------------------------------------------
LA--------------------------------------------
MI--------------------------------------------

Mi----12--10------12----10--------
SI------13--10--13--------12--10--
Sol-------------------------12----
RE--------------------------------
LA--------------------------------
MI--------------------------------

Mi-------12--10------10--12--15--15---13--12--13-12--
SI---------13--10--13--------------------------------
SOL--------------------------------------------------
RE---------------------------------------------------
LA---------------------------------------------------
MI---------------------------------------------------
                         aca empieza la viola!!  

MI----------15----------------------------------------
Si---13--12---------------13--12--13--12--13^-13--12^-
SOL---------------------------------------------------
RE----------------------------------------------------
LA----------------------------------------------------
MI----------------------------------------------------

                                                 
Mi---- ----------15--15---13--12--13-12-----------(15^)
MI---12--13--15----------------------------13--12------
SOL----------------------------------------------------
RE-----------------------------------------------------
LA-----------------------------------------------------
MI-----------------------------------------------------

MI-----------------------------------------------------
Si--13--12--13--12--13^-13--12^------------------------
SOL------------------------------12--13--15^-----------
RE-----------------------------------------------------
LA-----------------------------------------------------
MI-----------------------------------------------------
Versión 7 - Pasajera en Trance (Tablatura para guitarra (TAB))
Unplugged                        
                                 
INTRO: Teclado adaptado a guitarra

|---------------12----------------------12-------------------|
|-------13--15------13--15------13--15------13--15------13---|
|---14----------------------14----------------------14-------|
|------------------------------------------------------------|
|------------------------------------------------------------|
|------------------------------------------------------------|


|-----------12------------------12-------------------|
|---15--13------13--15------13------15--12-----------|
|-----------------------14------------------14--12---|
|----------------------------------------------------|
|----------------------------------------------------|
|----------------------------------------------------|


|---------------12----------------------12-------------------|
|-------13--15------13--15------13--15------13--15------13---|
|---14----------------------14----------------------14-------|
|------------------------------------------------------------|
|------------------------------------------------------------|
|------------------------------------------------------------|


|-----------12------------------12--15--15---|
|---15--13------13--15------13---------------|
|-----------------------14-------------------|
|--------------------------------------------|
|--------------------------------------------|
|--------------------------------------------|


|----------------------------------------15--15---|
|---13--12--13--12--13--13--12---12--15-----------|
|-------------------------------------------------|
|-------------------------------------------------|
|-------------------------------------------------|
|-------------------------------------------------|


|---13--12--13--12----------15---|
|-------------------13--12-------|
|--------------------------------|
|--------------------------------|
|--------------------------------|
|--------------------------------|


|----------------------------------------15--15--|
|---13--12--13--12--13--13--12---12--15----------|
|------------------------------------------------|
|------------------------------------------------|
|------------------------------------------------|
|------------------------------------------------|




Dm                   F  G
Ella está por embarcar, 
          Dm                     F    G
quizás consiga un pasaje en la borda. 
Dm                   F          G
Ella está por despegar 
        Dm
ella se va-a-a-a
Dm                 F  G
Ella viaja sin pagar 
           Dm                       F    G
el viejo truco de andar por la sombra. 
Dm                    F         G
Ella baila sobre el mar 
        Dm
ella se va. 
D             
Pasajera en trance 
                      G       F
pasajera en tránsito perpetuo 
D             
Pasajera en trance 
                     G          F            
transitando los lugares ciertos. 
D                                    G         F
Un amor real, es cómo dormir y estar despierto 
D                                    G    F
Un amor real es como vivir en aeropuerto.


REPITE LA INTRO Y CONTINUA CON 
EL ARREGLO DE CUERDAS

|---------------------------------------|
|---------------------------------------|
|-------------------------7-------------|
|---------5--7--7--5---9-----9--7-------|
|---8--8---------------------------10---|
|---------------------------------------|

|---------------------------------------------|
|---------------------------------------------|
|---------------------------------------------|
|------------------5----7--5--4-----5--4------|
|---5--5--7--8--8----------------7--------7---|
|---------------------------------------------|

|------------------------------------|
|------------------------------------|
|--------------------------5--7--7---|
|------------------5----7------------|
|---5--5--7--8--8--------------------|
|------------------------------------|
Versión 8 - Pasajera en Trance (Tablatura para bajo (bass tab))
bueno, este es mi primer tab q publico
cualquier correccion pueden enviarmela al mail
ale_yaciuk@hotmail.com


Este tab es de la version en vivo cuando presentan el disco Tango
por lo q puede haber ciertas variaciones a la version en estudio

Intro (0:09)

G 9--7----7--9--7------7--9--7----7-9-7--------
D -10-7-10----10-7-1010-10-10-7-10-----10-7-5-7 X2
A ---------------------------------------------
E ---------------------------------------------

(0:29)
G ----------------------1212-9-7-9-7----12------------------------1212
D 10-9-10-9-1010-9-----9------------10-7----10-9-10-9-1010-9-----9----
A ----------------10-10-------------------------------------10-10-----
E --------------------------------------------------------------------

Verso (0:49)
Ella esta por embarcar
G ------------------------------------5-7-5---
D ----33-3/5-5-7-8-5-7-8----33-3/5-5-7-----7-5  X4
A 5-57------------------5-57------------------
E --------------------------------------------

Verso 2 (1:28)
Pasajera en trance
G -------------------------------------
D ------------------1/5-5-7-5-5/3------ X4
A 0-h3-h5-5-3--------------------555555
E -----------5-3-3/1-------------------

despues vuelve al verso 1 y sigue igual hasta el final
fijense q en la version de estudio puede tener algunas variaciones

Letra de la cancion:

Ella está por embarcar,
quizás consiga un pasaje en la borda.
Ella está por despegar
ella se va.
Ella viaja sin pagar
el viejo truco de andar por la sombra.
Ella baila sobre el mar
ella se va.
Pasajera en trance
pasajera en tránsito perpetuo
Pasajera en trance
transitando los lugares ciertos.
Un amor real, es cómo dormir y estar despierto
Un amor real es como vivir en aeropuerto.

bueno, espero q les sirva
disfruten de esta excelente cancion
suerte
chau

El material contenido en esta página es para exclusivo uso privado y con propósito meramente educativo, se prohibe su reproducción y uso con fines comerciales