Me siento mucho mejor

Acordes de la canción 'Me siento mucho mejor' de Charly García

Versiones de esta canción: Letra y acordes - Tablatura para guitarra (TAB) - Tablatura para bajo (bass tab) - Tablatura para bajo (bass tab) - Letra y acordes - Notas para armónica

 Intro:
e|-----------------------------|
B|-14--12--14--15--14--12--14--| x 4
G|-----------------------------|
D|-----------------------------|
A|-----------------------------|
E|-----------------------------|

A          (A)
No razonar, desaparecer
                     E
cuando tenías que estar
                 F#m B7
te echaste a correr
                  A
lo que hiciste en mí
             D   Bm
no tiene perdón
                A                 E
y yo sé que me siento mucho más fuerte
          D G
sin tu amor.


A                 (A)
Mucho tiempo atrás me hiciste sentir
                      E
que nuestro amor era más
                F#m   B7
y de esa forma vivir
                 A
no sé más quién soy
             D   Bm
de qué te reís
                   A                E
y ahora sé que me siento mucho más fuerte
        D     G
sin tu amor.

A                  (A)
No sé más que hacer no sé qué decir
                   E
cuando tenías que estar
              F#m   B7
te echaste a reír
                 A
lo que hiciste en mí
             D   Bm
no tiene perdón
                   A                E
y ahora sé que me siento mucho más fuerte
        D    G
sin tu amor
                A                E
y yo sé que me siento mucho más fuerte
        D    G
sin tu amor
        D        G
oh sin tu amor.
Versión 2 - Me siento mucho mejor (Tablatura para guitarra (TAB))
Intro:                                   agus_corty@hotmail.com
----------------------------------------------------------------
------------------------------------------------organo----------
----------------------------------------------------------------
-----7--7-7--7-7--5--7------------------------------------------
-----7--7-7--7-7--5--7------------------------------------------
--0--5--5-5--5-5--3--5-55-55-55-55-55-55-55-55-55-55-55-55-55-...
organo
---11-9-11-12-11-9-11-----11-9-11-12-11-9-11-----------------
-------------------------------------------------------------
-------------------------------------------------------------
-------------------------------------------------------------
-------------------------------------------------------------
-------------------------------------------------------------

riff 1
------------------------------------------------------
----A-----------------E-------------------------------
------------------------------------------------------
---7-7-------7-7---7-2-2------------------------------
---7-7-------7-7---7-2-2------------------------------
---5-5-0-5-0-5-5---5-0-0------------------------------
   riff1          riff1
No razonar, desaparecer
              F#5
cuando tenías que estar
          B5
te echaste a correr
              RIFF1
lo que hiciste en mi
             D5
no tiene perdón
              A5
y yo se que me siento
           E5
mucho mas fuerte
         D5  G5
sin tu amor.

            RIFF1
Mucho tiempo atrás
            RIFF1
me hiciste sentir
                     F#5
que nuestro amor era mas
                  B5
y de esa forma vivir
                RIIF1
no sé, más quien soy
            D5
de qué te reís
                    A5
y ahora sé que me siento
            E5
mucho mas fuerte
         D5  G5
sin tu amor.

             RIFF1
No sé, qué hacer
            RIFF1
no sé, qué decir
                    F#5
cuando tenías que estar
               B5
te echaste a reír
                RIFF1
lo que hiciste en mi
             D5
no tiene perdón
                    A5
y ahora se que me siento
            E5             D5
mucho mas fuerte sin tu amor.

                 A5
Y yo se que me siento
            E5
mucho mas fuerte
         D5
sin tu amor.

Esta la sake porq no habia ni una como la gente y
desidi compartirla con todos
Me gusta charly y awante la renga jajaja
Agustin corty alta gracia cba
Versión 3 - Me siento mucho mejor (Tablatura para bajo (bass tab))
Intro: La

G|----------------------------------
D|----------------------------------
A|--7-7-7-7-7h-5--------------------
E|----------------------------------

Versos (no razonar..)

G|----------------------------------
D|----7--7-----6-7-7----------------
A|---------7-9-------7h9------------
E|----------------------------------

Asi toda la parte de la

Despues (..que estar..)cambia:

        E/Ab           F#m
G|------------------|----------------------
D|--6--6-6---6--6-6-|--4-------------------
A|------------------|-----7-5-4----4-5-7---
E|------------------|------------7---------

En la parte del f#m fíjense bien y escúchenlo bien
Fíjense los tiempos.. queda buenoo..

Despues vuelve a La

G|----------------------------------
D|----7--7-----6-7-7----------------
A|---------7-9-------7h9------------
E|----------------------------------

     D   A/C#     Bm
G|----------------------------
D|-----------------2----------
A|--5--5-4--4-2--2------------
E|----------------------------

Estribillo: (siento mucho más…)

    LA         Mi       Re      Sol
G|----------|--------|--------|---------------
D|--7-7-7-7-|--------|--------|----------------
A|----------|-7--7-7-|--5-5-5-|-10-10-10-10-10-
E|----------|--------|--------|----------------


Y asi repite.. escuchenlo y bueno SAY NO MORE..
Versión 4 - Me siento mucho mejor (Tablatura para bajo (bass tab))
Estuve viendo los otros 2 tabs de bajo de esta canción que están en la pagina.
Y noté que tienen un par de errores y no están completos. 
Este tab es continuo, o sea, no tienen que 'volver arriba para tocar el verso' 
toda la canción esta escrita y completa.

Intro

G-------------
D-------------
A---77s0------
E-------------

G-------------------------------------
D--7-7-----6-7--7-----7--7-----6-7----
A------7-9--------7-7------7-9-----7--
E-------------------------------------

Verso 1° Estrofa: 'No razonar, desaparecer...'

G---------------------------------------
D-7-7-----6-7-7-----7-7-----6-7-7---7---
A-----7-9-------7-7-----7-9-------7-----
E---------------------------------------

'...estar, te echaste a correr...'

G----------------------------------
D-6-66-6-66------------------------
A-----------7-9-7----0-------------
E-----------------10---7-7-7h5-7---

'...mi, no tiene perdón...'

G----------------------------------
D-7-7-----6-7----------------------
A-----7-9---------4-5-55-4---------
E-------------5-7----------7-77----

'..siento mucho más fuerte...'

G----------------------------
D---------------4-7-4--------
A------7-77-5-5--------------
E-5-55-----------------------

G--------------------------------------------
D-5555555-7-7-----6-7--7-----7--7-----6-7----
A-------------7-9--------7-7------7-9-----7--
E--------------------------------------------

2° Estrofa: '...atras, me hiciste sentir...'

G---------------------------------------
D-7-7-----6-7-7-----7-7-----6-7-7---7---
A-----7-9-------7-7-----7-9-------7-----
E---------------------------------------

'...que nuestro amor era más...'

G-----------------------------------
D-6-66-6-66-------------------------
A-----------7-9-7----0--------------
E-----------------10---7-7-7-9-10-7-

'...no se más quien soy...'

G----------------------------------
D-7-7-----6-7----------------------
A-----7-9---------4-5-55-4---------
E-------------5-7----------7-77----

'..siento mucho más fuerte...'

G----------------------------
D---------------4-7-4--------
A------7-77-5-5--------------
E-5-55-----------------------

G--------------------------------------------
D-5555555-7-7-----6-7--7-----7--7-----6-7----
A-------------7-9--------7-7------7-9-----7--
E--------------------------------------------

Solo de teclado:

G------------------------------
D--2h4-44-2-4-2-4s9-99-7-9-7-9-
A------------------------------
E------------------------------

G----------------------------------
D-7-7-----6-7----------------------
A-----7-9---------4-5-55-4---------
E-------------5-7----------7-77----

G-------------------
D-------------------
A------7-77-5-55----
E-5-55--------------

G--------------------------------------------
D-5555555-7-7-----6-7--7-----7--7-----6-7----
A-------------7-9--------7-7------7-9-----7--
E--------------------------------------------

'...(ha)cer, no sé que decir...'

G---------------------------------------
D-7-7-----6-7-7-----7-7-----6-7-7---7---
A-----7-9-------7-7-----7-9-------7-----
E---------------------------------------

'...estar, te echaste a reir...' 

G-------------------------------
D-6-66-6-66---------------------
A-----------9--7-----------------
E----------------9-7-9-10-7------

'...mi, no tiene perdón...'

G----------------------------------
D-7-7-----6-7--7-------------------
A-----7-9--------0--5-55-4---------
E--------------------------7-77----

'..siento mucho más fuerte...'

G--------------------------------
D-----------------4-7-4--5555555-
A------5h7-77-5-5----------------
E-5-55---------------------------

'..siento mucho más fuerte...'

G-----------------------
D---------------5555555-
A------7-77-5-5---------
E-5-55------------------

'...sin tu amor...'

G----------------------------
D-7-7----7-5-5---5-----------
A-----77-------5-------------
E----------------------------

'...oh sin tu amor...'

G----------------------------
D-7-7----7-5-5---5-----------
A-----77-------5-------------
E----------------------------

Final

G----------------------------
D--7-77--5-55----------------
A--------------------------0-
E--------------2-22--3-33----

G------------
D------------
A---12s0-----
E------------

Escribanme si tienen dudas....hasta la proxima!!
Versión 5 - Me siento mucho mejor (Letra y acordes)
A
No razonar, desaparecer
                     E/Ab
cuando tenías que estar
                 F#m B7
te echaste a correr
                  A
lo que hiciste en mí
             D A/C# Bm
no tiene perdón
                A                 E
y yo sé que me siento mucho más fuerte
          D G
sin tu amor.



Mucho tiempo atrás
me hiciste sentir
que nuestro amor era más
y de esa forma vivir
no sé más quién soy
de qué te reís
y ahora sé que me siento mucho más fuerte
sin tu amor.
No sé más que hacer
no sé qué decir
cuando tenías que estar
te echaste a reír
lo que hiciste en mí
no tiene perdón
y ahora sé que me siento mucho más fuerte
sin tu amor
y yo sé que me siento mucho más fuerte
sin tu amor
oh sin tu amor.
Versión 6 - Me siento mucho mejor (Notas para armónica)
      _____________________________________
     /
+---+---------------------------------------+---+
|   | 1 | 2 | 3 | 4 | 5 | 6 | 7 | 8 | 9 | 10| C |
+---+---------------------------------------+---+
      _____________________________________/

Intro:
 6     6  6 (5)    4  4  4  4  4  4  4  4  4  4
 5 (4) 5 (5) 5 (4) 5
 5 (4) 5 (5) 5 (4) 5
 5 (4) 5 (5) 5 (4) 5
 5 (4) 5 (5) 5 (4) 5

No reaccionar
 8 (8) 8  7
desaparecer
 8 (8) 8  7 (8) 7
cuando tenias que estar
 8  8  8  8  8 (8)   (7)(6) 6
te hechaste a correr
 8 (8) 8  7 (8)    8 (8) 7

lo que hiciste en mi
 8  8  8  8  7
no tiene perdon
 8 (8) 8  7 (8)    7
y ahora se que me siento
 7  7  7 (8) 7     8  8
mucho mas fuerte sin tu amor
 8 (9) 8  8 (8)    8  8 (8) 7

 5 (4) 5 (5) 5 (4) 5
 5 (4) 5 (5) 5 (4) 5

Mucho tiempo atras
 8  8 (8) 8  7
me hiciste sentir
 8 (8) 8  7 (8)
que nuestro amor era mas
 8  8  8  8  8  9  9 (8)
y de esa forma vivir
 8  8  7 (8) 8  7 (8)    7

No se mas quien soy
 8  8 (8) 8  7
de que te reis
 8 (8) 8  7 (8) 7
y ahora se que me siento
 7  7  7 (8) 7     8  8
mucho mas fuerte sin tu amor
 8 (9) 8  8 (8)    8 (8)(8) 7

Inter: (Xilofhon)
 5 (4) 5 (5) 5 (4) 5
 5 (4) 5 (5) 5 (4) 5

 6 (6)(6)(6)(6)(6) 6
 6 (6)(6)(6)(6)(6) 6
 6 (6)(6)(6)(6)(6) 6
 6 (6)(6)(6)(6)(6) 6  6
 6 (6)(6)(6)(6)(6) 6
 6  6 (5)(5)(5)(5) 6
 6 (6)(6)(6)(6)(6) 6
 6  7  7  7  7  7  6

 5 (4) 5 (5) 5 (4) 5
 5 (4) 5 (5) 5 (4) 5

No se mas que hacer
 8  8 (8) 8  7
no se que decir
 8 (8) 8  7 (8) 7
cuando tenias que estar
 8  8  8  8  8 (8)
te echaste a reir
 8 (8) 8  7 (8)    7

lo que hiciste en mi
 8  8  8  8  7
no tiene perdon
 8 (8) 8  7 (8)    7
y ahora se que me siento
 7  7  7 (8) 7  8  8
mucho mas fuerte sin tu amor
 8 (9) 8  8 (8)    8 (8)(8) 7

y ahora se que me siento
 7  7  7 (8) 7  8  8
mucho mas fuerte sin tu amor
 8 (9) 8  8 (8)    8 (8)(8) 7

Sin tu amor
(8)(8)(8) 7
Sin tu amor
(8)(8)(8) 7
Sin tu amor
(8)(8)(8) 7

Fin:
 6 (6)(6)(6)(6)(6) 6
 6 (6)(6)(6)(6)(6) 6  6
 6  6 (5)(5)(5)(5) 6
 6 (6)(6)(6)(6)(6) 6
 6  7

El material contenido en esta página es para exclusivo uso privado y con propósito meramente educativo, se prohibe su reproducción y uso con fines comerciales