Cerca de la Revolución

Acordes de la canción 'Cerca de la Revolución' de Charly García

Versiones de esta canción: Tablatura para guitarra (TAB) - Tablatura para bajo (bass tab) - Letra y acordes - Tablatura para guitarra (TAB) - Tablatura para guitarra (TAB) - Letra y acordes

ESTÁ MÁS QUE COMPLETA, HASTA CON LA LETRA DEL UNPLUGGED.
QUE LA DISFRUTEN. CUALQUIER COSA MI MAIL ES cabapablo@gmail.com


INTRO:
RIFF 0
RIFF 1 X4
RIFF 2
RIFF 1 X2

RIFF 1
Porque no vienes hasta mí,
Em           G      Am7
  porque no puedo amarte.
RIFF 3
Porque no vienes hasta mí,

porque cambias como el sol
porque eres tan distante
porque no cambias como el sol.

RIFF 4
Me siento sólo y confundido a la vez
los analistas no tienen nada que hacer
ya no se bien que decir
ya no se más que hacer
todo el mundo loco en el purvi and jean.

Am7                Bm2   RIFF 5
   Pero si insisto,    seguiré.
Am7                Bm2                        RIFF 5
   Pero si insisto,   yo se muy bien te con seguiré.

RIFF 1 X2

RIFF 1
Cerca de la revolución,
Em          G    Am7
  el pueblo pide sangre
RIFF 3
cerca de la revolución

yo estoy cantando esta canción
que alguna vez fue hambre
estoy cantando esta canción.

RIFF 4
Y si mañana es como ayer otra vez
lo que fue hermoso será horrible después.
también el ritmo es una cuestión de elecciones.
No elegí este mundo, pero aprendí a confiar.

Am7                Bm2   RIFF 5
   Pero si insisto,    seguiré.
Am7                Bm2       RIFF 5
                       oh  seguiré.

RIFF 1 X4

RIFF 4
Si estas palabras te pudieran dar fe
si esta armonía te ayudara a creer
yo sería tan feliz, tan feliz,
que moriría arrodillado a tus pies.

Am7                Bm2                  RIFF 5
   Pero si insisto,   yo se muy bien  seguiré.
Am7                Bm2                        RIFF 5
   Pero si insisto,   yo se muy bien te con seguiré.

SOLO

RIFF 1 Y RIFF 6

RIFF 0:
e|----------------------------------------------
B|----------------------------------------------
G|----------------------------------------------
D|----------------------------------------------
A|--------------------------------------------2-
E|-0-0--3-5-5--3-0-0--3-5-5-5-3-0-0--3-5-5--3-0-

RIFF 1:
e|------------------------------
B|------------------------------
G|------------------------------
D|------------------------------
A|-2-2--5-7-7--5-2-2--5-7-7-7-5-
E|-0-0--3-5-5--3-0-0--3-5-5-5-3-

RIFF 2:
e|-10-10-12-12-10-10-12--10-12-------10-10-12-12-10-10-12--10-12-
B|-10-10-12-12-10-10-12--10-12-------10-10-12-12-10-10-12--10-12-
G|-----------------------------6-6-6-----------------------------
D|---------------------------------------------------------------
A|---------------------------------------------------------------
E|---------------------------------------------------------------

RIFF 3:
e|-------------------------
B|-------------------------
G|-------------------4--5--
D|-------------------3--4--
A|-------5-7---------4--5--
E|-5-6/7-----7-0-7-7-------

RIFF 4:
e|--------------------------
B|--------------------------
G|--------------------------
D|-----------3/5--5-7-7-----
A|-5--5-3--3-1/3--3-5-5-8-7-
E|-3--3-1--1------------6-5-

RIFF 5:
e|----------------------------
B|----------------------------
G|----------------------------
D|------3-5-5--3------3-5-5-5-
A|-5-5--1-3-3--1-5-5--1-3-3-3-
E|-3-3-----------3-3----------

SOLO:
e|---------------------------3-5-5```-3-5/-------7`7h
B|---3---3```--------------5---------------5-8-5-----
G|-4---4------4-0-2```-0-----------------------------
D|-----------------------2---------------------------
A|---------------------------------------------------
E|---------------------------------------------------

e|6h5h0--------10-------12----------------------------
B|------5h5-12----12-11----8h10-8-10-8-------10/12-10-
G|-------------------------------------9-7-9----------
D|----------------------------------------------------
A|----------------------------------------------------
E|----------------------------------------------------

e|--------------------------------------10-10-12-12-
B|-8-----------8--8-7-5-3-2-------------10-10-12-12-
G|---9-7---7-9--------------0h2-0h2-0---------------
D|-------9-------/9-7-5-4-2-----------2-------------
A|--------------------------------------------------
E|--------------------------------------------------

e|-10-10-12--10-12----------------10-10-12-12-10-10-12--10-12-
B|-10-10-12--10-12----------------10-10-12-12-10-10-12--10-12-
G|------------------------------------------------------------
D|--------------------5-7-7```-5/-----------------------------
A|------------------7-----------------------------------------
E|------------------------------------------------------------

e|-12``------------------10-10-12-12-10-10-12--10-12--------------------
B|-15``-15-12-14-15------10-10-12-12-10-10-12--10-12--14/15-14-12-14/15-
G|------------------12``------------------------------14/15-14-12-14/15-
D|----------------------------------------------------------------------
A|----------------------------------------------------------------------
E|----------------------------------------------------------------------

e|-------------------------------------------------------------------
B|-14-12-14/15-14-12-14/15-12-14/15-14-12-12---12---12---12----------
G|-14-12-14/15-14-12-14/15-12-14/15-14-12-14``---14`--14`--14`-12-12-
D|-------------------------------------------------------------------
A|-------------------------------------------------------------------
E|-------------------------------------------------------------------

e|------------------------------------------------
B|-------8/10--8-8``-10``-8h10-8`8-------------1--
G|---7--7----------------------------2-2------0-0-
D|-/9--9---------------------------------0-0h2----
A|------------------------------------------------
E|------------------------------------------------

RIFF 6:
e|-----------------
B|-----------------
G|-----------------
D|-----------------
A|-2-2--5-7-7--5-2-
E|-0-0--3-5-5--3-0-

ACORDES:
       EADGBe
Em     022000
G      320033
Am7    X02010
Bm2    X12211
Versión 2 - Cerca de la Revolución (Tablatura para bajo (bass tab))
El tab de Santiago Alujas esta bien, pero le falto una parte. 
Fijense en la cancion antes del estribillo

Intro

G-----------------------------------------------------
D-----------------------------------------------------
A-----------------------------------------------------
E-0-0--3---5-5-3-0-0--3-5-5-5---3--0-0--3--5-5--3-0---

Puente antes de estribillo (parte que falta en el tab de Santiago Alujas)

G-----------------------------------------------
D-----------------------------------------------
A----------------------------------------5-5-5--
E-0---3---5--5-5-5-5---5--5-5-5-6-7--7-7--------

En el estribillo:


G-----------------------------------
D-----------------------------------
A-------------3-3-5-5---------------
E-3-3--1-1------------6-5-3---------


  
Pero si insisto...

G------------------------------
D------------------------------
A------------------------------
E---5--5-5-5-5--6--6-6-6-6-----

...conseguiré

G----------------------------------
D----------------------------------
A-----1--3-3--1-------1-3-3-3-1----
E-3-3------------3-3---------------
Versión 3 - Cerca de la Revolución (Letra y acordes)
Intro: (E5 E5 -G5 -A5 A5 -G5 -E5 E5 -G5 -A5 A5 A5 -G5 - E5 E5)



E5 E5     G5 A5 A5 G5  E5 E5 G5 A5 A5 A5 G5
Porque no vienes hasta mi.
Em         G     Am7
Porque no puedo amarte.
Am7 (o RIFF)             C#7 D7
Porque no vienes hasta mi.


Porque no cambias como el sol
Porque eres tan distante,
Porque no cambias como el sol.-


Gm        F5           C5          (C5 D5 Bb5 A5)
Me siento solo y confundido a la vez
Gm     F5          C5           (C5 D5 Bb5 A5)
Los analistas no podrán entender
         Gm         F5
Ya no se bien que decir,
         C5           (C5 D5 Bb5 A5)
Ya no se mas que hacer
Gm           F5             C5          (C5 D5 Bb5 A5)
Todo el mundo loco y yo sin poderte ver.-



Am7
Pero si insisto
Bb*                   G5      Bb5 C5 Bb5 G5 Bb5 C5 Bb5
yo se muy bien te conseguiré.-
Am7
Pero si insisto
Bb*                   G5      Bb5 C5 Bb5 G5 Bb5 C5 Bb5
yo se muy bien te conseguiré.-


Cerca de la revolución
El pueblo pide sangre
Cerca de la revolución.-


Yo estoy cantando esta canción
Que alguna ves fue hambre,
Estoy cantando esta canción.-

Gm…
Y si mañana es como ayer otra vez
Lo que fue hermoso será horrible después
No es solo una cuestión de elecciones
No elegí este mundo pero aprendí a querer.-

Pero si insisto…
Pero si insisto…


Solo sobre acordes estrofa



Si estas palabras te pudieran dar fé
Si esta armonía te ayudara a creer
Yo sería tan feliz, tan feliz en el mundo
Que moriría arrodillado a tus pies.-

Pero si insisto…
Pero si insisto…


Solo sobre intro hasta el final





Riff


1-------------------------
2-------------------------
3-------------------------
4-------------------------
5----------5-7-----2-2-4-5
6----5-6-7-----7-0--------




C#7: x434xx
D7:  x545xx
Bb*: x13311
Versión 4 - Cerca de la Revolución (Tablatura para guitarra (TAB))
RIFF 1
-|-----|--------|--------|----------|----------||
-|-----|--------|--------|----------|----------||
-|-----|----2-2-|--------|----2-2-2-|----------||
-|-2-2-|----2-2-|----2-2-|----2-2-2-|-----2-2--||
-|-2-2-|----0-0-|----2-2-|----0-0-0-|-----2-2--||
-|-0-0-|-3------|-3--0-0-|-3--------|-3---0-0--||


RIFF 2
-||------------------------||
-||------------------------||
-||------------------------||
-||------------------------||
-||-----------3--3-5-5-----||
-||-3--3-1--1----------7-7-||


Introducción: RIFF 1

RIFF 1
Porqué no vienes hasta mí,
porqué no puedo amarte,
Am7                        C#7   D7
porqué no vienes hasta mí.

RIFF 1
Porqué no cambias como el sol,
E5               A5        Am7
porqué eres tan distante,
                               C#7  D7
porqué no cambias como el sol.

RIFF 2
Me siento solo y confundido a la vez,
RIFF 2
los analistas no podrán entender.
RIFF 2
No sé muy bien qué decir,
RIFF2
ya no sé más qué hacer.
RIFF 2
Todo el mundo loco y yo sin poderte ver.

Am7                 Bb9                  Gm    C  Gm  C
Pero si insisto, yo sé muy bien, te conseguiré.
Pero si insisto, yo sé muy bien, te conseguiré.

RIFF 1
Cerca de la revolución, el pueblo pide sangre.
Cerca de la revolución.
Yo estoy cantando esta canción
que alguna vez fue hambre,
estoy cantando esta canción.

RIFF 2
Y si mañana es como ayer otra vez
lo que fue hermoso será horrible después,
no es sólo una cuestión de elecciones,
no elegí este mundo pero aprendí a querer.

Am7                 Bb9                   Gm    C  Gm  C
Pero si insisto, yo sé muy bien, te conseguiré.
Pero si insisto, yo sé muy bien, te conseguiré.

RIFF 1
Si estas palabras te pudieran dar fe,
si esta armonía te ayudara a crecer
yo sería tan feliz, tan feliz en el mundo
que moriría arrodillado a tus pies.

Am7                 Bb9                   Gm     C  Gm  C
Pero si insisto, yo sé muy bien, te conseguiré.
Pero si insisto, yo sé muy bien, te conseguiré.
Versión 5 - Cerca de la Revolución (Tablatura para guitarra (TAB))
Hola a todos, esta es mi primera trascripcion.
Si bien en la pagina no estan mal he visto algunos
errores en acordes. Espero que les sirva!!!!


 Intro: (E5 G5 A5)

e------------------------
B------------------------
G------------------------
D----------2-2-----------
A---2-2----0-0----2-2-2--
E---0-0-3b-----3b-0-0-0--                     Am6 (arpegiado)
                                            e-------0----------
Intro                                       B---------0--------
Por que no vienes hasta mi                  G-----5-----5------
Em             G     Am6                    D----5-------------
Por que no puedo amarte                     A------------------
                       C#7 D#7              E--5---------------
Porque no vienes hasta mi
Intro
Por que no cambias como el sol              Riff 1
 Em              G       Am6                E---------------
Por que eres tan distaaante                 B---------------
                           C#7 D#7          G---------------
Por que no cambias como el sol              D--5-7-7--------
G5         F5          C5       Riff 1      A--3-5-5-8-7----
Me siento solo y confundido a la vez        E--------6-5----


G5      F5         C5  Riff 1
Los analistas no podran entender
          G5        F5
ya no se bien que decir
         C5    Riff 1                                Riff 2
ya no se mas que hacer                           e----------------
G5            F5            C5     Riff 1        B----------------
Todo el mundo loco y yo sin poderte ver          G----------------
                                                 D------3-5-5-3---
Am              A#                 Riff 2        A-5-5--1-3-3-1---
Pero si insito, yo se muy bien que conseguire    E-3-3------------
Pero si insito, yo se muy bien que conseguire

Cerca de la revolucion
El pueblo pide sangre
Cerca de la revolucion
Yo estoy cantando esta cancion
Que alguna vez fue hambre
Estoy cantando esta cancion

Y si mañana es como ayer otra vez
Lo que fue hermoso sera horrible despues
No es solo una cuestion de elecciones
No elegi este mundo pero aprendi a querer

Pero si insito, yo se muy bien que conseguire
Pero si insito, yo se muy bien que conseguire

Si estas palabras te pudieran dar fe
Si esta armonia te ayudara a creer
yo seria tan feliz, tan feliz en el mundo
Que moriria arrodillado a tus pie

Pero si insito, yo se muy bien que conseguire
Pero si insito, yo se muy bien que conseguire

Bueno eso es todo, espero que les sirva. El solo de guitarra
Se los debo porque zero ganas de sacarlo. Pero si lo necesitan
nada mas me envian un e-mail a sebastian_bustamante@hotmail.com.ar

Quiero dedicarle esta trascripcion a sil, y a toda la gente de Cosquin que
me conoce. Aguante el rock and roll loco...

Sebastian Bustamante
Versión 6 - Cerca de la Revolución (Letra y acordes)
Introducción:  Em  A

Em           A          Em    A
Porqué no vienes hasta mí,
Em                 Am7
porqué no puedo amarte,
                       C#7   D6
porqué no vienes hasta mí.


Porqué no cambias como el sol,
porqué eres tan distante,
porqué no cambias como el sol.

Gm         F            C          Dm7
Me siento solo y confundido a la vez,
Gm         F         C          Dm7
los analistas no podrán entender.
      Gm               F
No sé muy bien qué decir,
          C           Dm7
ya no sé más qué hacer.
Gm             F              C       Dm7
Todo el mundo loco y yo sin poderte ver.

Am7            Bb9                       Gm       C  Gm  C
Pero si insisto, yo sé muy bien, te conseguiré.
Pero si insisto, yo sé muy bien, te conseguiré.


Cerca de la revolución, el pueblo pide sangre.
Cerca de la revolución.
Yo estoy cantando esta canción
que alguna vez fue hambre,
estoy cantando esta canción.


Y si mañana es como ayer otra vez
lo que fue hermoso será horrible después,
no es sólo una cuestión de elecciones,
no elegí este mundo pero aprendí a querer.


Pero si insisto, yo sé muy bien, te conseguiré.
Pero si insisto, yo sé muy bien, te conseguiré.


Si estas palabras te pudieran dar fe,
si esta armonía te ayudara a crecer
yo sería tan feliz, tan feliz en el mundo
que moriría arrodillado a tus pies.


Pero si insisto, yo sé muy bien, te conseguiré.
Pero si insisto, yo sé muy bien, te conseguiré.

====================================================
Copiado de El Galpon del Rock Nacional
(http://192.216.191.221/SiliconValley/Heights/5530/)
Transcripcion de Silvio Epelbaum
(trigger@impsat1.com.ar)

El material contenido en esta página es para exclusivo uso privado y con propósito meramente educativo, se prohibe su reproducción y uso con fines comerciales