Piano bar

Acordes de la canción 'Piano bar' de Charly García

Intro:


E ------------------------------------------------------------------------
B 1--6--4--3--1--3--1--0-----------1--6--4--3--1--3--1--0-----------------
G ------------------------2--0--2--------------------------2--0--2--4--2--
D ------------------------------------------------------------------------
A ------------------------------------------------------------------------
E ------------------------------------------------------------------------


E ----------------------------------------------------------
B 1--6--4--3--1--3--1--0------------1--6--4--3--1--3--2--1--
G ------------------------2--0--2---------------------------
D ----------------------------------------------------------
A ----------------------------------------------------------
E ----------------------------------------------------------



Em7                           F7
Rubias de New York, fantasmas de percal.
Em7                                 F7
Presten atención, se ha abierto un piano bar.
  G/B      F/A      E/G#
¿Será que nací en el sur?
  G/B         F/A     Bb        Em7
¿Será que encendí la luz de tu amor?

Viudas de neón, amantes de Gardel.
Suena un bandoneón cerca de un cabaret.
¿Será que nací en el sur?
¿Será que encendí la luz de tu amor?

INTRO

C      G           Am    F
 Los chicos tienen un lugar
       C          G         Am       F
donde viven esas cosas que asombran.
C      G           Am    F
 Los chicos tienen un lugar
      Esus4
donde ir a conversar.

Usa tu rubor, encoje tu disfraz.
Pluma de gorrión, sonrisa de zorzal
Coloca – vitrina – al – sur.
Reloca – Titila – luz,
LA ciudad.

Los chicos tienen un lugar...

El material contenido en esta página es para exclusivo uso privado y con propósito meramente educativo, se prohibe su reproducción y uso con fines comerciales