Promesas sobre el bidet

Acordes de la canción 'Promesas sobre el bidet' de Charly García

Versiones de esta canción: Letra y acordes - Tablatura para bajo (bass tab) - Tablatura para guitarra (TAB) - Tablatura para bajo (bass tab) - Notas para armónica

Corrección del tema 'Promesas sobre el bidet' de Charly García

Intro:[Dm7  Gm7  Am7] x2

      Gm7              Am7         Dm7
Por favor, no hagas promesas sobre el bidet.
      Gm7              Am7        Dm7
Por favor, no me abras más los sobres.
      Gm7           Am7       Dm7
Por favor, yo te prometo te esperaré
            Bbmaj7        Csus4
si es que paro de correr.

Por favor, sigue la sombra de mi bebé,
por favor, no bebas más, no llores.
Por favor, yo te prometo, te escribiré
si es que para de llover.

F                     EbMaj7/F           Dm7
 Porque me tratas tan bien me tratas tan mal.
   Bbmaj7
¿Sabés que no aprendí a vivir?
F                  Fm               Dm7
 A veces estoy tan bien, estoy tan down,
  Ebmaj7
calambres en el alma.
Dm7    A/C#        Am/C       Bø
Cada cual tiene un trip en el bocho,
  Bbmaj7       Am7
difícil que lleguemos a
  Csus4          Dm7  Gm7  Am7
ponernos de acuerdo.
            Dm7  Gm7  Am7
De acuerdo...

Inter: con acordes de la 1ª estrofa.

Porque me tratas tan mal me tratas tan bien....

De acuerdo... 

Fin: como Intro.
Versión 2 - Promesas sobre el bidet (Tablatura para bajo (bass tab))
Enorme canción de Charly.
En este tema el bajo está doblado por un sintetizador (tocado por Fito Páez).

INTRO
          RIFF                           x4
--------||---------------------------------||
--5-3-2-||°---------3-5-----7-------5-3-2-°||
--------||°-5-----5-----------------------°||
--------||---------------------------------||

ESTROFA A

 Gm7     Am7   D            x3
------------------------------
-5-----5-7----------------7---
---------------5------5-8---8-
------------------------------

 Bb              C4
-------------------------------||
-------------------------5-3-2-||
-----------------3-----3-------||
-6-----6-6---------------------||


ESTROFA B

 Gm7     Am7   D            x3
------------------------------
-5-----5-7----------------7---
---------------5------5-8---8-
------------------------------

 Bb              C4
--------------------------------||
--------------------------------||
-----------------3-----3-3------||
-6-----6-6----------------------||


ESTRIBILLO

 F               Fm
--------------------------------
--------------------------------
-8-------8-------8-------8------
--------------------------------

 Dm7            Bb7+
-------------------------------
-------------------------------
-5-----5-5------1-----1-1------
-------------------------------

 F              Fm
-------------------------------
-------------------------------
-8-----8-8------8-----8-8------
-------------------------------

 Dm7            Eb7+
-------------------------------
-------------------------------
-5-----5-5------6-----6-6------
-------------------------------

 Dm7     A/C#   Am/C    Bø
--------------------------------
--------------------------------
-5-----5-4----4-3-----3-2-----2-
--------------------------------

 Bb7+    Am7    C4
------------------------------||
------------------------5-3-2-||
-1-----1-0----0-3-------------||
------------------------------||

RIFF (x4) + ESTROFA B (Instrumental) + RIFF x4


FINAL

------------------------------||
-5-3-2------------------------||
-------5----------------------||
------------------------------||


Saludos!
Dudas o correcciones: valentino1708@hotmail.com
Versión 3 - Promesas sobre el bidet (Tablatura para guitarra (TAB))
Intro

e |------------------------5---|
B |-------------------3---5----|
G |--------------2---3---5-----|
D |--5-3-2----2h3---5---7------|
A |--------5-------------------|
E |----------------------------|


      Gm7              Am7         Dm7
Por favor no hagas promesas sobre el bidet
      Gm7              Am7        Dm7
Por favor no me habras mas los sobres
      Gm7          Am7        Dm7
Por favor yo te prometo te esperare, 
          Bbmaj7         Csus4
si es que paro de correr

Por favor sigue la sombra de mi, bebe
Por favor no bebas mas, no llores
Por favor yo te prometo te cuidare, 
si es que para de llover.

F                     Fm                  Dm7
Por que me tratas tan bien, me tratas tan mal
      Bbmaj7
Vos sabes que no aprendi a vivir
F                 Fm              Dm7
A veces estoy tan bien, estoy tan down

Ebmaj7
Calambres en el alma, 
D5     D5/Db       D5/Db       D5/B
cada cual tiene un trip en el bocho.
   D5/Bb      D5 
Dificil que lleguemos
     Csus4
a ponernos de acuerdo.


Por que me tratas tan mal, me tratas tan bien
Sabes que no aprendi a vivir
A veces estoy tan bien, estoy tan down
Calambres en el alma, 
cada cual tiene un trip en el bocho
Dificil que lleguemos 
a ponernos de acuerdo

Acordes

e |--6-------------------------------------------|
B |--8-------3-----3------3-----3------3-----3---|
G |--7-------2-----2------2-----2------2-----2---|
D |--8-------0-----------------------------------|
A |--6-------------4------3-----2------1-----0---|
E |----------------------------------------------|
    Ebmaj7   D5   D5/Db  D5/C  D5/B  D5/Bb   D5

e |--3----0----1-----1-------3----|
B |--3----1----1-----3-------6----|
G |--3----0----2-----2-------5----|
D |--3----2----0-----3-------5----|
A |--5----0----------1-------3----|
E |--3---------------1-------3----|
    Gm7  Am7  Dm7  Bbmaj7  Csus4
Versión 4 - Promesas sobre el bidet (Tablatura para bajo (bass tab))
Intro

G------------------------------
D--5--3--2-------3--5--7-------
A----------5--5----------------
E------------------------------ X4


Versos G-A-D

   G               A    D
G-------5----------------------
D--5--3---3--5---5-7-----------
A-----------------------5------
E------------------------------X3

   G         Bb   C
G-------5----------------------
D--5--3---3--------------------
A------------1--1-3-3-3--------
E------------------------------


Repite lo mismo fijate como engancha denuevo con el sol

   G               A    D
G-------5----------------------
D--5--3---3--5---5-7-----------
A-----------------------5------
E------------------------------X3

   G         Bb   C
G-------5----------------------
D--5--3---3--------------------
A------------1--1-3-3-3--------
E------------------------------


Estribillo:
(.. porq me tratas tan..)
   F      Fm     Dm      Bb
G---------------------------------
D---------------------------------
A---------------5--5-5---1--1-1---
E--1-1---1/-13--------------------


  F           Fm      Dm      Eb
G---------------------------------
D---------------------------------
A-------------------5--5-5---6--6-6---
E--1--1-1---1--1-1---------------



(cada cual tiene…)

  Dm    C#   C    B    Bb   A    C    D
G--------------------------------------
D--------------------------------------
A--5--5-4--4-3--3-2--2-1--1-0--0-3-3/-5
E--------------------------------------

Después engancha con la intro y repite todo denuevo
Bueno cualquier duda Mail soy roke Agunte charly
SAY NO MORE
Versión 5 - Promesas sobre el bidet (Notas para armónica)
  Intro: A- 6 (5)5(4)  5(6)6 (6)
         B- 6 (5)5(4)  5(5)(6)  6(7)(8) (6)7 8(10)

  |6 (6) 7 (6)(6) 5  6  6  5  6  6 (6)
x2|6 (6) 7 (6)(6) 5  6  6  5 (4)
  |6 (6) 7 (6)(6) 5  6  6  5  6  6 (6)
  |5  5 (4) 4  5  6 (6) 6

  |5  5  5  5 (5) 6 (4)(4)(4) 5 (5) 4
  |4 (6)(6)(6)(6)(6) 6 6
x2|5  5  5  5 (5) 6 (4)(4) 5 (5) 4
  |4 (6)(6)(6)(6)(6) 6
  |7  7 (7)(6) 6 (6) 6  6 (4) 4
  |4  5  6  6  5 (6) 6 (4) 4 (4) 4  4 (4) 4
  (6)(8) 7

  (6)(8) 7    (6)(8) 7

El material contenido en esta página es para exclusivo uso privado y con propósito meramente educativo, se prohibe su reproducción y uso con fines comerciales