15 forever

Acordes de la canción '15 forever' de Charly García

Tema instrumental
Vamos a tocar una cancion de Casandra Lange, mi prima,
 y se llama quince para siempre ( fifteen forever):

Acordes:
C  D7  G  
C D7  G
Am G C D G
C  D7  G  
C D7  G 
Am G C D G
Dbm  Dm  B Bb  A
D  E7   A
D  E7   A
D





   C     D7     G               Am         D7            G        C D G

E-------0-------------3--0-0-1-3-5-5-5-7-8-10-7-----------------        
B--1-3----3-----0-----0-------------------------------10-8------
G-- ---------2--------0-----------------------------------------
D---------------------0-----------------------------------------
A---------------------2-----------------------------------------
E---------------- 0-2-3-----------------------------------------




   C      D7  G               C    D7   G              Am        D7           G     C D G
E-------0--------0-----0--------- 0-----0------0-0-1-3-5-5-5-7-8-10-7------------
B--1-3----3---0----4-3---4-3--1-3--3------4-3------------------------------10-8-- 
G-----------2-------------------------2------------------------------------------
D--------------------------------------------------------------------------------
A--------------------------------------------------------------------------------
E--------------------------------------------------------------------------------

Dbm  Dm  B Bb  A

   
   D      E7     A               D     E7  A         D
E-----0-2-0--------2-1-0-2-1-0-----0-2-0---2-1-0---
B--3---------0-3-2---------------3-------0---------
G--------------------------------------------------
D--------------------------------------------------
A--------------------------------------------------
E--------------------------------------------------

El material contenido en esta página es para exclusivo uso privado y con propósito meramente educativo, se prohibe su reproducción y uso con fines comerciales