X-men

Acordes de la canción 'X-men' de Música de TV

Hola a todos esta es la primera vez que participo osea que no me digan nada.

Bueno asi va:

4---------10-13-12--10---------10-13-12---
5----10-13-------------10-10-13---------10

2-------------------------------------13
3----------------------------------12---
4--------10-13-12---10-13---12--10------
5--10-13--------------------------------

2--------------------------------------15
3--------------------------------13-12---
4------------------------------13--------
5--11-10-8-13-11-10-15-13-11-15----------

2-------------------------13
3----------------------12-12
4-------10-13-12--10-13---10
5--10-13--------------------


Bueno, primero se toca la primera parte, despues la segunda, 
otra vez la primera, y otravez la segunda y despues la tercera y la cuarta.

Esta tablatuea se la dedico a mi amigo el Pato que ama a la 
prima de la Mary ttas, pero la Petra impide que se amen. OK

El material contenido en esta página es para exclusivo uso privado y con propósito meramente educativo, se prohibe su reproducción y uso con fines comerciales