Saint seiya - pegasus fantasy

Acordes de la canción 'Saint seiya - pegasus fantasy' de Música de TV

Versiones de esta canción: Tablatura para guitarra (TAB) - Tablatura para guitarra (TAB) - Letra y acordes

Este es el tema de los caballeros del zodiaco del intro de la serie
normal, esa cuando tienen las armaduras pencas con casco...



Este intro lo saco tambien una octava mas baja y suena bn igual

E|-------------------------------------------------------------|
B|-------------------------------------------------------------|
G|-------------------------------------------------------------|
D|-----5--3----------------------------------5--3------6~~-----| x2
A|3--6------5-------3--6--5------------3--6-------5------------|
E|-------------6--4---------6--4--------------------6----------|


Esta es la melodia :)
|--------1--3---3-1-1---1-------------------1----1-3-3---3-6-7--|
|-1-3-4---------------4---4-3---1-3-4---3-4----4----------------|
|---------------------------------------------------------------|
|---------------------------------------------------------------|
|---------------------------------------------------------------|
|---------------------------------------------------------------|

|-------1--3---3-1-1---1------------------3-1-----------|
|-1-3-4--------------4--4-3---1-3-4--3-1-4---4--3-3-1---|
|--------------------------------------------------3----|
|-------------------------------------------------------|
|-------------------------------------------------------|
|-------------------------------------------------------|

|-4--3-3-1-3--1-1-------6-4-3-1---------------------1----1-----------|
|------------------------------4--1-3-4--3-1-4--3-1--4-3-------0-1-3-|
|-----------------3-3-3-----------------------------------3-3-3------|
|--------------------------------------------------------------------|
|--------------------------------------------------------------------|
|--------------------------------------------------------------------|

|-1--3-3--1-3-1-------3----1-1--1-6--4-3-1-3--1-3--|
|---------------4-3-1-----3------------------4-----|
|--------------------------------------------------|
|--------------------------------------------------|
|--------------------------------------------------|
|--------------------------------------------------|

|-1--3-3--1-3-1-------3-----1-1------1-1---4-3-1-3--|
|---------------4-3-1----3-4------3-4---------------|
|---------------------------------------------------|
|---------------------------------------------------|
|---------------------------------------------------|
|---------------------------------------------------|

En caso de ke les cueste sacarla, lo unico ketienen ke hacer
es elevar su cosmo a lo mas alto y ya veran ke sale mas facil :)
Versión 2 - Saint seiya - pegasus fantasy (Tablatura para guitarra (TAB))
esta rola la conosco como SAd Brothers  XD se toca lenta pero es
el opening del anime....
pueden chekar como se toca en este video

http://mx.youtube.com/watch?v=XW1xWdD0a5g



e|--------0--------------0---------------------------|
B|--0-1-3----0-1p0---------3-3-1-1h3-1-0----0-----0-0|
G|-2--------2-----2-----2-2---------------0-----0--2-|
D|---------2-------2---2-------------------2---2-2---|
A|--------0-----------0----------2-------2----2------|
E|---------------------------------------------------|


e|------------------0--0---0-2s4----4-------|
B|-1--1-0---3---1-3------3---------3--------|
G|---2---2----0-------0-0---------4---------|
D|--2--------0-0----------------------------|
A|------------------3-----------------------|
E|-1--------3--------------------0----------|


e|--------0----------------0---------------------------|
B|--0-1-3------0-1p0---------3-3-1-1h3-1-0----0-----0-0|
G|-2----------2-----2-----2-2---------------0-----0--2-|
D|---------0h2-------2---2-------------------2---2-2---|
A|--------0-----------0------------2------2----2-------|
E|-----------------------------------------------------|


e|--------0----------------------------------------|
B|-1p0-1-------3---1--0-0-------0-1p0----2-2-------|
G|----2--2-2-----0--0----0--2----2---2---2-2--2-----|
D|------0------------------(2)-2------2------2-2----|
A|--------------------------0----------------------|
E|-1-----------3------------------------2--2-------|


e|-1---1-0-0--0---------3-1-0------------------|
B|----------3-----1s3----------3--1—-0h1-0-----|
G|---2----------2-----0--0-0-0--0---0---2------|
D|-0-------------------------------2-----------|
A|------------0---1s3---3---3--2--0------------|
E|---------------------------------------------|



e|-------------------------------------(0)—-12arm--|
B|-1p0—-1-0----3-1---3----------------(0)---12arm--|
G|----2----2-------4----0-0-0-1-2-2s4-------12arm--|
D|----------------------------2-2------------------|
A|----------------------------2-2-2s4--------------|
E|-1----1------3-----3-----------------------------|



e|-----0-------0--------------1p0-------0-----(0)-------|
B|-1-3------0------3-1-0---0—----0---1--1—-1p0-3--3-1p0-|
G|-------2---2---2--2-2-2---2-----2-2-2-2--------0-----0|
D|------2------------------3-------3----3---------------|
A|-----0-------0----------------------------------------|
E|---------------------------------------------3--------|

e|--3-1-0-----0--0-2s--4—-5-5s7----0----------0---------|
B|---------3----1-—------3------0-----0h1p0------3-1-0--|
G|---0-0-0--0--0--------4--------0---2-----2----2-2-2-2-|
D|----------------------------------2-------2-----------|
A|---------2--0--------------------0----------0---------|
E|--3------------------0--------------------------------|




e|------0----------0—------------1-1-0---0---0----------0--|
B|-----(0)-1-----1—-1p0---3---0--0-----3---1--1—-1-----1---|
G|--2-2---2--2--2-2----2----0--0-0--------2----2-----(1)---|
D|---2---------2-----------0-----0-------------------------|
A|-------------------------------2-------0-----------0-----|
E|--1-------1-------------3------3---------------1---------|



Es todo xD jaa! Puedo tener error ahí en los bajos Y_Y no importa XD

tengo ke aclarar ke la sake de un
video que vi en utube...Gracias a ese compa

Esta shida la version ojala les sirva
Dudas, quejas, sugerencias, consejos
regaños, mentadas XD esas aka --> kraken_x1@hotmail.com
Saludos desde Morelia,Michoacán, México
Versión 3 - Saint seiya - pegasus fantasy (Letra y acordes)
Intro:

e|------------3--------------------------------|
B|--------4-------6---4--3-----3--4--3---------|
G|----5---------------------3-----------5--3---|
D|---------------------------------------------|
A|---------------------------------------------|
E|---------------------------------------------|

e|------------3-------------8------------------|
B|--------4-------6---4--3---------------------|
G|----5----------------------------------------|
D|---------------------------------------------|
A|---------------------------------------------|
E|---------------------------------------------|  x 2

Pegasus Fantasy
              Cm
Siempre la verdad
          Gm
vencerá a todo el mal
     G#         A#         Eb         A#
y si tú quieres ser, un guerrero vencerás
              Cm                 Gm
con todo el poder, llegaras hasta el final
       G#               A#             Cm
si los sueños se van el cosmos te enviara

G#        A#
 ¡Pegasus fantasy!
Gm         Cm
luz y libertad
        G#
por que son tus poderes
    A#                  G
como el corazón nadie te dañará

         Cm              G#   A#
¡Saint seiya! jóvenes guerreros
          A#               Eb  A#
¡Saint seiya! siempre lucharáaaan
         Cm                 G#      A#
¡Saint seiya! unidos por su fuerzaaaa
¡Saint seiya! y ¡Pegusus!
           Cm
¡Hasta el final!

Cm /G# /A# / CmCmCm

Los ultimos tres Cm se acentuan con un solo golpe y va en el 8ª traste

El material contenido en esta página es para exclusivo uso privado y con propósito meramente educativo, se prohibe su reproducción y uso con fines comerciales