Caballeros del Zodiaco

Acordes de la canción 'Caballeros del Zodiaco' de Música de TV

Versiones de esta canción: Letra y acordes - Tablatura para guitarra (TAB) - Tablatura para guitarra (TAB) - Tablatura para guitarra (TAB) - Acordes para piano o teclado (con notas)

----------------------------------
ESTROFA:
----------------------------------
 C#                G#  C#
Los guardianes del universo

                G#
al triunfar el mal
----------------------------------
 C#            G#    C#
sin duda lo salen a combatir

                G#
por un mundo ideal
----------------------------------
----------------------------------
ESTRIBILLO:
----------------------------------
 C#  A#7           D#m
Caballeros del Zodiaco,

  G#                C#
cuando lanzan sus ataques

A#7                 D#m
entonan con fuerza su cancion,

        G#            C#    G#
la cancion de los terrores
----------------------------------
----------------------------------
ESTROFA:
----------------------------------
 C#                G#  C#
Los guardianes del universo

                G#
al triunfar el mal
----------------------------------
 C#            G#    C#
sin duda lo salen a combatir

                G#
por un mundo ideal
----------------------------------
----------------------------------
ESTRIBILLO:
----------------------------------
 C#   A#7            D#m
Caballeros del Zodiaco,

  G#                C#
cuando lanzan sus ataques

A#7                 D#m
entonan con fuerza su cancion,

        G#            C#    G#
la cancion de los terrores
----------------------------------
 C#  A#7             D#m
Caballeros del Zodiaco,

 G#                   C#
contra las fuerzas demoniacas

 A#7                   D#m
guardan siempre en su corazon

     G#         C# G# C#
coraje para vencer
----------------------------------
----------------------------------
FIN
----------------------------------

Tomado de la transcripción de Rex,
 con algunos pequeños arreglos para que suene mas parecida aún
Versión 2 - Caballeros del Zodiaco (Tablatura para guitarra (TAB))
Bueno es la primera cancion es la de los caballeros 
del zodiaco si aun no la ubican cuando la 
toquen se van a dar cuenta espero que laos fnas les guste 
fans les guste

Pegasus fantasy
Opening original de la serie caballeros del zodiaco
(saint seiya)




1|--5---7-8---10-12---12--10-10--8-10-8-7------------------|
2|---------------------------------------------------------|
3|---------------------------------------------------------|
4|---------------------------------------------------------|
5|---------------------------------------------------------|
6|---------------------------------------------------------|

1|--5-7-8--7-8-10--8-10-12-12--12---15-16------------------|
2|---------------------------------------------------------|
3|---------------------------------------------------------|
4|---------------------------------------------------------|
5|---------------------------------------------------------|
6|---------------------------------------------------------|

|--5---7-8---10-12---12--10-10--8-10-8-7------------------|
|---------------------------------------------------------|
|---------------------------------------------------------|
|---------------------------------------------------------|
|---------------------------------------------------------|
|---------------------------------------------------------|

|--5-7-8--7-5-8--12-10--8--7-7---3---5--------------------|
|---------------------------------------------------------|
|---------------------------------------------------------|
|---------------------------------------------------------|
|---------------------------------------------------------|
|---------------------------------------------------------|

|--13--12-12--10--12--10-10--3-3---3--15-13--12--10-8-----|
|---------------------------------------------------------|
|---------------------------------------------------------|
|---------------------------------------------------------|
|---------------------------------------------------------|
|---------------------------------------------------------|

|-5-7-8--7-5-8--7-5-10---8--7--10---3-3--3--4---5--7------|
|---------------------------------------------------------|
|---------------------------------------------------------|
|---------------------------------------------------------|
|---------------------------------------------------------|
|---------------------------------------------------------|

|-8---10--12--12----10--12---10---8---7---5---5--12-------|
|---------------------------------------------------------|
|---------------------------------------------------------|
|---------------------------------------------------------|
|---------------------------------------------------------|
|---------------------------------------------------------|

|-7--8--10-10----10--15--13--12---10--12---8--10--12------|
|---------------------------------------------------------|
|---------------------------------------------------------|
|---------------------------------------------------------|
|---------------------------------------------------------|
|---------------------------------------------------------|

|-8--10--12---10--12--10--8--7--5---5—12-----------------|
|---------------------------------------------------------|
|---------------------------------------------------------|
|---------------------------------------------------------|
|---------------------------------------------------------|
|---------------------------------------------------------|

|-7--8--10-----7---8--10----13--12--10--12---12--16--17---|
|---------------------------------------------------------|
|---------------------------------------------------------|
|---------------------------------------------------------|
|---------------------------------------------------------|
|---------------------------------------------------------|

cualquier duda escribirme.
Versión 3 - Caballeros del Zodiaco (Tablatura para guitarra (TAB))
|-------0---3-1-0-----------0-------------0---3-5-3-1-0------0---3----------------|
|-1-1-3---1------3-1--1-1-3---1-----1-1-3---1-----------1-1-3--1------------------|
|-------------------------------0-------------------------------------------------|
|---------------------------------------------------------------------------------|
|---------------------------------------------------------------------------------|
|---------------------------------------------------------------------------------|


|-3-3-5-3-1-0-1-3-5-----3-1-0---0-1-3--0-0-1-0-------1-5-7-3-3-1-0-----------------|
|-------------------6-6-------3----------------3-1-3--------------3-1--------------|
|---------------------------------------------------------------------------------|
|---------------------------------------------------------------------------------|
|---------------------------------------------------------------------------------|
|---------------------------------------------------------------------------------|
Versión 4 - Caballeros del Zodiaco (Tablatura para guitarra (TAB))
PEGASUS FANTASY
tema de entrada de los Caballeros del Zodiaco

Tab por Daniel de la Parra


Me dio mucho gusto ver que Cartoon network esta 
retrasmitiendo Los Caballeros del Zodiaco, estas si 
eran caricaturas, no como la puterias que ven los 
niños de ahora como Pokemon y otros. Hace diez años 
veiamos esta serie con la clasica cancioncita de 'loz 
guardianez del univerzo...' pero ahora la estan 
trasmitiendo con la cancion original (en español) que 
esta de poca madre, yo la he tocado con mi banda un 
par de veces en los antros y... ¡la gente se enciende! 
asi que a darle:



Afina en mi (E)


Intro:

e|------------3--------------------------------|
B|--------4-------6---4--3-----3--4--3---------|
G|----5---------------------5-----------5--3---|
D|---------------------------------------------|
A|---------------------------------------------|
E|---------------------------------------------|

e|------------3--------------------------------|
B|--------4-------6---4--3---------------------|
G|----5---------------------5------------------|
D|---------------------------------------------|
A|---------------------------------------------|
E|---------------------------------------------|  x 2


Versos:


(Aqui ahoga un poco con tu mano derecha las cuerdas, 
se supone que ya sabes como rasgear, solo checa los 
tiempos)


Siempre la verdad
vencera a todo mal
y su quieres ser
un guerrero venceras

   Cm    B    G#  B    D#   G

e|----------------------------------------------|
B|----------------------------------------------|
G|----------------------------------------------|
D|--5----3--------3----8---12-------------------|
A|--3----1----6---1----6---10-------------------|
E|------------4---------------------------------|


tengo el poder
de llegar hasta el final
si los sueños se van 
el cosmos te guiara


   Cm    B   G#   B    Cm

e|----------------------------------------------|
B|----------------------------------------------|
G|----------------------------------------------|
D|--5----3--------3----5------------------------|
A|--3----1----6---1----3------------------------|
E|------------4---------------------------------|


(por ahi se escuchan unos fulls, estos son en la 
segunda cuerda, traste 17)


Puente:


Pegasus Fantasy luz y libertad


   G#    B                D#               Cm     

e|----------------------------------------------|
B|----------------------------------------------|
G|----------------------------------------------|
D|------ 3----------------8--------8--------5---|
A|--6----1----------6-6-6-6--5-5-5-5--3-3-3-3---|
E|--4-------------------------------------------|



estos son sus poderes
con el corazon 

      D#           F        

e|----------------------------------------------|
B|----------------------------------------------|
G|----------------------------------------------|
D|----8------------10---------------------------|
A|----6------------8----------------------------|
E|----------------------------------------------|



(la guitarra lider le puede agregar esto para darle 
mas feeling)

e|---------------------------------|
B|---------------------------------|
G|---------------------------------|
D|---------------------------------|
A|--3-5-6-5-3-6----5-6-8-6-5-8-----|
E|---------------------------------|


nadie te va a ganar

e|-------------------|
B|-------------------|
G|-------------------|
D|-------------------|
A|--9--10--12--------|
E|--7--8---10--------|


Saint seiya, jovenes guerreros
sait seiya siempre lucharan


   Cm  G#      B    D#   G

e|----------------------------------------------|
B|----------------------------------------------|
G|----------------------------------------------|
D|--5----------3----8----12---------------------|
A|--3---6------1----6----10---------------------|
E|------4---------------------------------------|


Saint seiya unidos por su fuerza
Saint seiya, pegaso
hasta el final

   Cm   G#     B

e|----------------------------------------------|
B|----------------------------------------------|
G|----------------------------------------------|
D|--5----------3--------------------------------|
A|--3---6------1--------------------------------|
E|------4---------------------------------------|


Outro:

e|--------------------------------------------|
B|--------------------------------------------|
G|--------------------------------------------|
D|--------------------------------------------|
A|---3--5-6-8----------5-6-8------------------|
E|-------------6----8-------------------------| x2



Esta es la version que se escucha en tv, existe una 
mas completa que es basicamente lo mismo 
te recomiendo mucho la version de Highlord 
(una banda italiana de power metal)


Si te gusto este tab dame las gracias: 
daniel_delaparra@yahoo.com.mx
Versión 5 - Caballeros del Zodiaco (Acordes para piano o teclado (con notas))
(melodía y armonía)

 C
do do re mi do sol fa mi do
                G
do do re mi do sol

 C
do do re mi do sol la sol fa mi
                G
do do re mi do sol

 C                    F
sol sol la sol fa mi fa sol la
 F                  C
fa fa sol fa mi re mi fa sol
 F                 F
mi mi fa mi re do re fa la
       G            C
si la sol fa mi re do

El material contenido en esta página es para exclusivo uso privado y con propósito meramente educativo, se prohibe su reproducción y uso con fines comerciales