Dragon Ball GT - mi corazón encantado

Acordes de la canción 'Dragon Ball GT - mi corazón encantado' de Música de TV

Versiones de esta canción: Tablatura para guitarra (TAB) - Letra y acordes - Tablatura para guitarra (TAB) - Acordes para piano o teclado (con notas) - Letra y acordes - Tablatura para bajo (bass tab) - Tablatura para guitarra (TAB)

AQUI ESTA LA TAB DE DRGON BALL GT ESTE
ES EL PEDAZO Q VA DESPUES DE LA CANCION DEL COMIENZO

e|--3—3—0—1—3---5—3—1---0------0—0---------0--1--0----------------|
B|--------------------------3---------1--3---------3--1--0--------|
G|------------------------------------------------------------2--2|
D|----------------------------------------------------------------|
A|----------------------------------------------------------------|
E|----------------------------------------------------------------|

e|----------5-h—3—--3------------------------------------------------|
B|----------------------3----3----5--—6---5---3----1---5---6-p-5---3-|
G|-2—2--5------------------------------------------------------------|
D|-------------------------------------------------------------------|
A|-------------------------------------------------------------------|
E|-------------------------------------------------------------------|

e|--3—3—0—1—3---5—3—1---0------0—0---------0--1--0----------------|
B|--------------------------3---------1--3---------3--1--0--------|
G|------------------------------------------------------------2--2|
D|----------------------------------------------------------------|
A|----------------------------------------------------------------|
E|----------------------------------------------------------------|

e|----------5-h—3—-3----------------------------------------------------|
B|--------------------3-----3-----5--—6---5---3----1---5---3---1--0--1--|
G|-2—-2--5--------------------------------------------------------------|
D|----------------------------------------------------------------------|
A|----------------------------------------------------------------------|
E|----------------------------------------------------------------------|

e|-------8---8---8---8---8----6----4----6----8-----6---|
B|--1--------------------------------------------------|
G|-----------------------------------------------------|
D|-----------------------------------------------------|
A|-----------------------------------------------------|
E|-----------------------------------------------------|

e|--6---6---6---6----6--4---3---4----6------4----|
B|-----------------------------------------------|
G|-----------------------------------------------|
D|-----------------------------------------------|
A|-----------------------------------------------|
E|-----------------------------------------------|

e|--4--4--4-----4-3-------3------------------------------|
B|---------------------6-------6-----6-----4-----6-/8----|
G|-------------------------------------------------------|
D|-------------------------------------------------------|
A|-------------------------------------------------------|
E|-------------------------------------------------------|

ESPERO Q LES GUSTE
NO ESTA COMPLETA PERO ESTEE ES EL PEDAZO MAS VACANO
CUALQUIER DUDA O CORRECCION MI CORREO ES
MAX-POWELL666@HOTMAIL.COM
Versión 2 - Dragon Ball GT - mi corazón encantado (Letra y acordes)
Tócala escuchando la canción y verás, pues si no, habrán acordes que
te confundirán.

C                 G
 Tu sonrisa tan resplandeciente
 Am              Em     E7
 A mi corazón deja encantado
 F           C Am
 Ven toma mi mano
    A#               G            G#-A#-C
 Para huir de esta terrible oscuridad.


 Fm                    A#            Gm
 En el instante en que te volví a encontrar
                  Cm                Fm
 Mi mente trajo a mí aquel hermoso lugar
                G7             Cm         C7
 Que cuando era niño fue tan valioso para mi.

          G#                 A#              Gm
 Quiero saber si acaso tú conmigo quieres bailar
              Cm           Fm
 Si me das tu mano te llevare
          G7             Cm            D#
 Por un camino cubierto de luz y oscuridad,

          G#                                  Gm
 Tal vez sigues pensando en el no puedo yo saberlo
                                   Cm
 Pero se que entiendo que amor necesitas tu
 Fm             A#                  G
 Y el valor para pelear, en mi lo hallaras.


 C               G
 Mi corazón encantado vibra
 Am                  Em      E7
 Por el polvo de esperanza y magia
 F      C  Am          A#           Am G
 Del universo que ambicionan todos poseer.

 C                 G
 Voy a amarte para toda la vida
 Am                      Em    E7
 No me importa si aun no te intereso
 F           C  Am      A#               G          G#-A#-Csus4-C
 Ven toma mi mano para huir de esta infinita oscuridad.
Versión 3 - Dragon Ball GT - mi corazón encantado (Tablatura para guitarra (TAB))
qonda.... no pues esta es mi primera transcripcion
aqui y poes no me tomo mucho sacarla....
no es tan complicado pero necesitas conocer los ritmos
de la cancion para sacarla con mayor facilidad, no esta completa
pero aki pongo lo que saque.......
UN SALUDO ALA PREPA JOSE VASCONCELOS
a oscar(bambam),set(cohen),lola,andres(wiki), Fraile, Lina, Miranda
Sofia (golosa),ivonne,etc....


Intro:

e|---—-—-—-—-----—-—------------—---------------------------------|
B|-----------------10---------------------------------------------|
G|--12-12---9-10-12---12-10-9-------9-9-------9-10-9--------------|
D|----------------------------12--------10-12--------12-10-9------|
A|----------------------------------------------------------------|
E|----------------------------------------------------------------|

-(En este los ultimos tres "10,9 y 12" se tocan rapido)
e|---—-—-—-—-----—-—------------—---------------------------------|
B|---------10-8---------------------------------------------------|
G|-----------------------9-10-------9---10-9----------------------|
D|---7--10------10----12------12-10---------12--------------------|
A|----------------------------------------------------------------|
E|----------------------------------------------------------------|

e|---—-—-—-—-----—-—------------—---------------------------------|
B|-----------------10---------------------------------------------|
G|--12-12---9-10-12---12-10-9-------9-9-------9-10-9--------------|
D|----------------------------12--------10-12--------12-10-9------|
A|----------------------------------------------------------------|
E|----------------------------------------------------------------|

e|---—-—-—-—-----—-—------------—---------------------------------|
B|---------10-8---------------------------------------------------|
G|-----------------------9-10-------------------------------------|
D|--7-7-10------10----12------12-10-12----12-10-9h10--------------|
A|----------------------------------------------------------------|
E|----------------------------------------------------------------|



bueno eso es todo lo que saque x).....
espero y les guste, cualquier correccion o duda
agregarme a mi correo posesivo@gmail.com, agregarme
al msn porque mi correo casi nunka lo reviso x)....
Versión 4 - Dragon Ball GT - mi corazón encantado (Acordes para piano o teclado (con notas))
                     INTRO

     G G E F G A G F E D E E C D E F E D C B A
     A C A G C D E F E D C D C B C

                   INTERMEDIO

      (Cx5) A# G# A# C A#
      (A#x5) G# G G# A# G#
      G# G# G# G F G F F D# F G G

      G G# F# C (Cx5)A# G# A# C A#
      A# A# C D D D D# A# G# G G#

      G# A# G# G G G
     (sig octava)G# F F E F G G

      G# A# C C A# C C A# C
      A# D C A# G# G

      G# A# C D D C (Dx4)(Ex3)D E F#

                   FIN

      G G E F G A G F E D E E C D E F E D C B A
      A C A G C D E F E D C D E F D

      G G E F G A G F E D E E C D E F E D C B A
      A C A G C D E F E D C D C B C
Versión 5 - Dragon Ball GT - mi corazón encantado (Letra y acordes)
TE LA DEDIKO A TI EL UNIKO AMOR VERDADERO Q E TENIDO! NALLELY PIZAÑA TE AMO


C                 G
 Tu sonrisa tan resplandeciente
 Am              Em
 A mi corazón deja encantado
 F             C
 Ven toma mi mano
    A#               G            G#-A#-C
 Para huir de esta terrible oscuridad.


 Fm                    A#            Gm
 En el instante en que te volví a encontrar
                  Cm                Fm
 Mi mente trajo a mí aquel hermoso lugar
                Gm             Cm         C7
 Que cuando era niño fue tan valioso para mi.

          G#                 A#              Gm
 Quiero saber si acaso tú conmigo quieres bailar
              Cm           Fm
 Si me das tu mano te llevare
          Gm             Cm          C7
 Por un camino cubierto de luz y oscuridad,

          G#                                  Gm
 Tal vez sigues pensando en el no puedo yo saberlo
                                   Cm
 Pero se que entiendo que amor necesitas tu
 Fm             A#                  G
 Y el valor para pelear, en mi lo hallaras.


 C               G
 Mi corazón encantado vibra
 Am                  Em
 Por el polvo de esperanza y magia
 F      C             A#           G
 Del universo que ambicionan todos poseer.

 C                 G
 Voy a amarte para toda la vida
 Am                  Em
 No me importa si aun no te intereso
 F           C         A#               G          G#-A#-C
 Ven toma mi mano para huir de esta infinita oscuridad.
Versión 6 - Dragon Ball GT - mi corazón encantado (Tablatura para bajo (bass tab))
MI CORAZÓN ENCANTADO

INTRO

G|---------------------------------|-----0-------0-------0-------0---|
D|---------------------------------|---------3-------2-------0-------|
A|---------------------------------|---------------------------------|
E|---------------------------------|---------------------------------|

CHORUS

G|---------------------------------|---------------------------------|
D|---------------------------------|---------------------------------|
A|-3---3---3---3---3---3---3---3---|-2---2---2---2---2---2---2---2---|
E|---------------------------------|---------------------------------|

G|---------------------------------|---------------------------------|
D|---------------------------------|---------------------------------|
A|-0---0---0---0---0---0---0---0---|---------------------------------|
E|---------------------------------|-0---0---0---0---0---0---0---0---|

G|---------------------------------|---------------------------------|
D|---------------------------------|---------------------------------|
A|---------------------------------|-----------------0---0---0---0---|
E|-1---1---1---1---1---1---1---1---|-0---0---0---0-------------------|

G|---------------------------------|-0---0---0-----------------------|
D|---------------------------------|---------------------------------|
A|-1---1---1---1---1---1---1---1---|---------------------------------|
E|---------------------------------|---------------------------------|

G|---------------------------------|---------------------------------|
D|---------------------------------|---------------------------------|
A|---------------------------------|-1---1---1---1---1---1---1---1---|
E|-4---4---4---4---4---4---4---4---|---------------------------------|

G|---------5-------4-------2-------|-0-----------0-------0-------0---|
D|---------------------------------|---------3-------2-------0-------|
A|---------------------------------|---------------------------------|
E|---------------------------------|---------------------------------|

VERSE

G|---------------------------------|---------------------------------|
D|---------------------------------|---------------------------------|
A|-----0---------------------------|-1---1---1---1---1---1---1---1---|
E|-3-------1---1---1---1---1---1---|---------------------------------|

G|---------------------------------|---------------------------------|
D|---------------------------------|---------------------------------|
A|---------------------------------|-3---3---3---3---3---3---3---3---|
E|-3---3---3---3---3---3---3---3---|---------------------------------|

G|---------------------------------|---------------------------------|
D|---------------------------------|---------------------------------|
A|---------------------------------|---------------------------------|
E|-1---1---1---1---1---1---1---1---|-3---3---3---3---3---3---3---3---|

G|---------------------------------|---------------------------------|
D|---------------------------------|-1---1---1---1---1---1---1---1---|
A|-3---3---3---3---3---3---3---3---|---------------------------------|
E|---------------------------------|---------------------------------|

G|---------------------------------|---------------------------------|
D|---------------------------------|---------------------------------|
A|---------------------------------|---------------------------------|
E|-4---4---4---4---4---4---4---4---|-4---4---4---4---4---4---4---4---|

G|---------------------------------|---------------------------------|
D|---------------------------------|---------------------------------|
A|---------------------------------|-3---3---3---3---3---3---3---3---|
E|-3---3---3---3---3---3---3---3---|---------------------------------|

G|---------------------------------|---------------------------------|
D|---------------------------------|---------------------------------|
A|---------------------------------|---------------------------------|
E|-1---1---1---1---1---1---1---1---|-3---3---3---3---3---3---3---3---|

G|---------------------------------|---------------------------------|
D|---------------------------------|---------------------------------|
A|-3---3---3---3---3---3---3---3---|-1---1---1---1---1---1---1---1---|
E|---------------------------------|---------------------------------|

G|---------------------------------|---------------------------------|
D|---------------------------------|---------------------------------|
A|---------------------------------|---------------------------------|
E|-4---4-------4-4-4---4-------4-4-|-4---4-------4-4-4---4-------4-4-|

G|---------------------------------|---------------------------------|
D|---------------------------------|---------------------------------|
A|---------------------------------|---------------------------------|
E|-3---3-------3-3-3---3-------3-3-|-3---3-------3-3-3---3-------3-3-|

G|---------------------------------|---------------------------------|
D|---------------------------------|---------------------------------|
A|-3---3---3---3---3---3---3---3---|---------------------------------|
E|---------------------------------|-1---1---1---1---1---1---1---1---|

G|---------------------------------|-----0-------0-------0-------0---|
D|---------------------------------|---------3-------2-------0-------|
A|-1---1---1---1---1---1---1---1---|---------------------------------|
E|---------------------------------|---------------------------------|

CHORUS

G|---------------------------------|---------------------------------|
D|---------------------------------|---------------------------------|
A|-3---3---3---3---3---3---3---3---|-2---2---2---2---2---2---2---2---|
E|---------------------------------|---------------------------------|

G|---------------------------------|---------------------------------|
D|---------------------------------|---------------------------------|
A|-0---0---0---0---0---0---0---0---|---------------------------------|
E|---------------------------------|-0---0---0---0---0---0---0---0---|

G|---------------------------------|---------------------------------|
D|---------------------------------|---------------------------------|
A|---------------------------------|-----------------0---0---0---0-0-|
E|-1---1---1---1---1---1---1---1---|-0---0---0---0-0-----------------|

G|---------------------------------|---------------------------------|
D|-0---0---0---0---0---0---0---0---|-2---2-----------------------0---|
A|---------------------------------|---------------------0---2-------|
E|---------------------------------|-----------------3---------------|

G|---------------------------------|---------------------------------|
D|---------------------------------|---------------------------------|
A|-3---3---3---3---3---3---3---3---|-2---2---2---2---2---2---2---2---|
E|---------------------------------|---------------------------------|

G|---------------------------------|---------------------------------|
D|---------------------------------|---------------------------------|
A|-0---0---0---0---0---0---0---0---|---------------------------------|
E|---------------------------------|-0---0---0---0---0---0---0---0---|

G|---------------------------------|---------------------------------|
D|---------------------------------|---------------------------------|
A|---------------------------------|-----------------0---0---0---0-0-|
E|-1---1---1---1---1---1---1---1---|-0---0---0---0-0-----------------|

G|---------------------------------|---------------------------------|
D|---------------------------------|---------------------------------|
A|-1---1---1---1---1---1---1---1---|---------------------------------|
E|---------------------------------|-3-------------------------------|

G|---------------------------------|---------------------------------|
D|---------------------------------|---------------------------------|
A|---------------------------------|-1---1---1---1-------------------|
E|-4---4---4---4-------------------|---------------------------------|

G|---------------------------------|---------------------------------|
D|---------------------------------|---------------------------------|
A|-3-------------------------------|---------------------------------|
E|---------------------------------|---------------------------------|
Versión 7 - Dragon Ball GT - mi corazón encantado (Tablatura para guitarra (TAB))
     C              G        Am           Em
e|----------------5---------|--------------------|
B|---5/8-8--5-6-8---8-6-5---|-5-5-----5-6-5------|
G|------------------------7-|----5-7-------7-5-4-|
D|--------------------------|--------------------|
A|--------------------------|--------------------|
E|--------------------------|--------------------|

  F          C-Am  A#  G
e|-----5----------------------------
B|-------8-8------5-6-5-------------
G|---5-------5--7-------7-5-7-5-4-5-
D|-7--------------------------------
A|----------------------------------
E|----------------------------------

                G#-A#-C
e|--------------------------------|---------------|
B|--------------------------------|-1-0-----------|
G|---1-0---------3-1-0------0-----|-----2-0-------|
D|-------3-1-0-1-------3--3---3-2-|---------3-2-0-|
A|--------------------------------|---------------|
E|--------------------------------|---------------|

DE AHI LO SIGUEN EN ACORDES... HASTA QUE LLEGUEN DE NUEVO
AL CORO AUNQUE ESTA VEZ ES UN POQUITO DIFERENTE

     C              G        Am           Em
e|----------------5---------|--------------------|
B|---5/8-8--5-6-8---8-6-5---|-5-5-----5-6-5------|
G|------------------------7-|----5-7-------7-5-4-|
D|--------------------------|--------------------|
A|--------------------------|--------------------|
E|--------------------------|--------------------|

  F         C-Am      A#     Am G
e|-----5----------------------------
B|-------8-8------5-6-5---------6---
G|---5-------5--7-------7-5-7/9---7-
D|-7--------------------------------
A|----------------------------------
E|----------------------------------

     C              G        Am           Em
e|----------------5---------|--------------------|
B|---5/8-8--5-6-8---8-6-5---|-5-5-----5-6-5------|
G|------------------------7-|----5-7-------7-5-4-|
D|--------------------------|--------------------|
A|--------------------------|--------------------|
E|--------------------------|--------------------|

  F          C-Am  A#  G
e|-----5----------------------------
B|-------8-8------5-6-5-------------
G|---5-------5--7-------7-5-7-5-4---
D|-7--------------------------------
A|----------------------------------
E|----------------------------------

                G#-A#-C
e|--------------------------------|
B|--------------------------------|
G|---1-0---------3-1-0------0-----|
D|-------3-1-0-1-------3--3---3-2-|
A|--------------------------------|
E|--------------------------------|

EN LOS ULTIMOS ACORDES PARA HACERLO MAS COMODO Y MAS PRO (G#-A#-C)
UTILIZENLOS EN:
A# --] EN EL 6TO ACORDE
C ---] EN EL 8VO ACORDE

EL INTERMEDIO VA A IR A PARTE, O TALVEZ LO ACTUALICE... THANKS

El material contenido en esta página es para exclusivo uso privado y con propósito meramente educativo, se prohibe su reproducción y uso con fines comerciales