Dragon ball tema de tapion

Acordes de la canción 'Dragon ball tema de tapion' de Música de TV

Versiones de esta canción: Tablatura para guitarra (TAB) - Tablatura para guitarra (TAB)

Hola a todos aqui les traigo la melodia de tapion
de otra manera y completa
Siguir la melodia para guiarse

Esta parte es despacio

e. ----0--7-5-3-5----0-2-3--3-5-3-2--
B. 0-0-------------------------------
G. ----------------------------------
D. ----------------------------------
A. ----------------------------------
E. ----------------------------------

e. ----0--7-5-3-5-0--0-2-3--3-2-0---0
B. 0-0----------------------------4--
G. ----------------------------------
D. ----------------------------------
A. ----------------------------------
E. ----------------------------------

aqui se toca mas rapido

e. -----0-------0--7-5-3-5-------5--0-2-3-------3-3-5-3-2-------2------
B. -0-0---0---0------------5---5----------0---0-----------2---2--------
G. ---------0----------------6--------------0---------------2----------
D. --------------------------------------------------------------------
A. --------------------------------------------------------------------
E. --------------------------------------------------------------------


e. -----0-------0--7-5-3-5-------5--0-2-3-------3---2-2-0---0-------0--
B. -0-0---0---0------------5---5----------0---0-----------3---0---0----
G. ---------0----------------6--------------0-------------------0------
D. --------------------------------------------------------------------
A. --------------------------------------------------------------------
E. --------------------------------------------------------------------

bueno espero que les halla gustado y la saquen rapido
Versión 2 - Dragon ball tema de tapion (Tablatura para guitarra (TAB))
Esta canción se toca con la afinación estándar: E-A-D-G-B-E, espero que les
guste, es una canción sencilla, pero tiene mucho sentimiento, en flauta u
ocarina suena mejor pero, en la guitarra no suena mal. :)

|----------12-10-8-10--------8---8--10-8----|
|-----10---------------10-12-------------12-|
|-9-9---------------------------------------|
|-------------------------------------------|
|-------------------------------------------|
|-------------------------------------------|

|----------12-10-8-10--------8---8-------------|
|-----10---------------10-12-------12--10-8-10-|
|-9-9------------------------------------------|
|----------------------------------------------|
|----------------------------------------------|
|----------------------------------------------|

|------------------12-10-8-10----------10---------8--------8-|
|-----10--------10------------10----10------10-12------------|
|-9-9----9----9------------------11-----------------9----9---|
|----------10-----------------------------------------10-----|
|------------------------------------------------------------|
|------------------------------------------------------------|

|-10-8----------------|
|------12----------12-|
|---------11----11----|
|------------12-------|
|---------------------|
|---------------------|

|------------------12-10-8-10----------10---------8--------8----|
|-----10--------10------------10----10------10-12------------12-|
|-9-9----9----9------------------11-----------------9----9------|
|----------10-----------------------------------------10--------|
|---------------------------------------------------------------|
|---------------------------------------------------------------|

|-------------------|
|-10-8-10--------10-|
|---------9----9----|
|-----------10------|
|-------------------|
|-------------------|

El material contenido en esta página es para exclusivo uso privado y con propósito meramente educativo, se prohibe su reproducción y uso con fines comerciales