Saint seiya - ikki theme

Acordes de la canción 'Saint seiya - ikki theme' de Música de TV

Versiones de esta canción: Tablatura para guitarra (TAB) - Tablatura para guitarra (TAB)

Shiryu & Ikki Theme
La interpretacion de esta rola la pueden chekar en mi video

http://mx.youtube.com/watch?v=XW1xWdD0a5g



e|--0-2-5-3-2-3-------0-----0-3-0-7-10-8--5------|
B|------—-------0----0-0---0-------------5-5-----|
G|------------------0---0-0-------------5---5----|
D|-----------------2-------------------------7---|
A|----------------2---------------------------7--|
E|--------------0--------0-------------5---------|


e|----5-7-8-7-5-0-3--------5s3-3--3-2--2--------|
B|---5----—----------0--5--------1----1---------|
G|--5---------------0-0--0------0----0----------|
D|----------------------------------------------|
A|-----------------------------2----------------|
E|-5--------------0-----------------------------|


e|------5---2----------0-----0----12-arm-----------|
B|-----2---2—-----4---------0-0---12-arm-----------|
G|--2-2---2----(2)---------0---0—-12-arm-----------|
D|------------4-----------2------------------------|
A|-----------------------2-------------------------|
E|-2-------------------0---------------------------|


e|--0-2-5-3-2-3------------0—----0--3-------0-----|
B|------—-------0----0-----0---0-------1-----1----|
G|------------------0-0----1--1---1--1----0---0---|
D|-----------------2---2---0-0-----------2-2---2--|
A|----------------2-----2--2-----------0----------|
E|--------------0---------------------------------|

e|-------0--5--5-----2--2-----2-4-2---0-----0---12-|
B|---1---—----------3--3---4----------0----0-0--12-|
G|--0-0---0--0---2-2--2------2-2-2-2------0---0-12-|
D|---------------------------------------2---------|
A|-0------------------------------------2----------|
E|-------------2-----------2----------0------------|



Esta shida la version tengo ke aclarar ke la sake de un
video que vi en utube... Gracias a ese compa
Puedo tener uno ke otro Errorsillo como sea...
Dudas, quejas, sugerencias, consejos
regaños, mentadas XD esas aka --> kraken_x1@hotmail.com
Saludos desde Morelia,Michoacán, México
Versión 2 - Saint seiya - ikki theme (Tablatura para guitarra (TAB))
Bueno esta es mi primera transcripcion, esta es la mejor cancion
que le ponen a Ikki, es muy buena suena igual que la version
original que esta en Piano, asi que cualquier duda ahi esta mi
correo.

IKKI THEME

e 12-14-17-15-14-15--------12-14-15-12-19-22-20--------17-19-20-19--<>
b ------------------12----------------------------------------------<>
g ------------------------------------------------------------------<>
d ------------------------------------------------------------------<>
a ------------------------------------------------------------------<>
e ------------------------------------------------------------------<>

e -17-12-15------17-15-14-------14-15-14-------14-12-----<>
b----------------------------------------12-12-----------<>
g -------------------------------------------------------<>
d -------------------------------------------------------<>
a -------------------------------------------------------<>
e -------------------------------------------------------<>

e -12-14-17-15-14-15-------<>
b --------------------12---<>
g -------------------------<>
d -------------------------<>
a -------------------------<>
e -------------------------<>

e --12-14-15-12-----19-22-20---------------17-19-20-19-17-12-15--<>
b ---------------------------------------------------------------<>
g ---------------------------------------------------------------<>
d ---------------------------------------------------------------<>
a ---------------------------------------------------------------<>
e ---------------------------------------------------------------<>

e -17-15-14--14-15-14------14-12----19------14-------------------<>
b---------------------12-12--------------------12-12-------------<>
g -------------------------------16-----16-----------------------<>
d ---------------------------------------------------------------<>
a ---------------------------------------------------------------<>
e ---------------------------------------------------------------<>

e ---14-15------------14-15-15------17-15-14-14-15-14------------<>
b -12------13------13----------------------------------12--------<>
g ---------------------------------------------------------------<>
d ---------------------------------------------------------------<>
a ---------------------------------------------------------------<>
e ---------------------------------------------------------------<>

e ----14-12------19-----14---------------14-15-------------------14--<>
b --12----------------------12-12------12--------13----------13------<>
g-------------16-----16----------------------------------------------<>
d -------------------------------------------------------------------<>
a -------------------------------------------------------------------<>
e -------------------------------------------------------------------<>

e ----14---15-15----17-15-14----15-----12----------<>
b --13-----------------------------12--------------<>
g -------------------------------------------------<>
d -------------------------------------------------<>
a -------------------------------------------------<>
e -------------------------------------------------<>


Eso es todo cualquier duda escribanme y porfaaa si tienen
el tab de "EL REQUIEM DE CUERDAS DE MIME" pasenmelo porfa
es urgente.

El material contenido en esta página es para exclusivo uso privado y con propósito meramente educativo, se prohibe su reproducción y uso con fines comerciales