Rock bones - como ser el futuro

Acordes de la canción 'Rock bones - como ser el futuro' de Música de TV

LA#          LAm
Despierto, soñando
SOLm           FA
Me duermo pensando
LA#           LAm
Qué hago, qué siento
SOLm           FA
Qué busco, que encuentro

RE#
El futuro es ilusión
                FA
El presente esta canción
RE#
El futuro puede ser
                 FA
Todo lo que imagine


LA#                     LAm
Floggers, punks, rocanroleros
SOLm              FA
Darkies y reggaetoneros
LA#                    LAm
Emos, góticos y hippies
SOLm                   FA
Heavis, freakis y raperos
RE#
Música y adrenalina
FA
El estadio se ilumina


LA#                     LAm
Floggers, punks, rocanroleros
SOLm                FA
Darkies y reggaetoneros
LA#                    LAm
Emos, góticos y hippies
SOLm                   FA
Heavis, freakis y raperos
RE#
Música y adrenalina
FA
Al estadio en limusina


1:----------------------------------------------
2:---7----------7----------7--------------------
3:-----8-6-4------8-6-4------8-6-4----1--4--7--4
4:----------------------------------------------
5:----------------------------------------------
6:----------------------------------------------


1:----------------------------------------------
2:---7----------7----------7--------------------
3:-----8-6-4------8-6-4------8-6-4----1--4--8--4
4:----------------------------------------------
5:----------------------------------------------
6:----------------------------------------------


LA#              LAm
Me duermo pensando
SOLm         FA
Despierto, soñando
LA#              LAm
Y veo en mi mente
SOLm          FA
Un mundo diferente

RE#
El futuro es ilusión
              FA
El presente esta canción
RE#
El futuro puede ser
               FA
Todo lo que imagine


LA#                     LAm
Floggers, punks, rocanroleros
SOLm                FA
Darkies y reggaetoneros
LA#                    LAm
Emos, góticos y hippies
SOLm                   FA
Heavis, freakis y raperos
RE#
Música y adrenalina
FA
El estadio se ilumina


LA#                     LAm
Floggers, punks, rocanroleros
SOLm                 FA
Darkies y reggaetoneros
LA#                    LAm
Emos, góticos y hippies
SOLm                   FA
Heavis, freakis y raperos
RE#
Música y adrenalina
FA
Al estadio en limusina

1:----------------------------------------
2:----------------------------------------
3:---11-11-11--10-10-10--9--9--9---8--8--8
4:---11-11-11--10-10-10--9--9--9---8--8--8
5:---9--9--9---8--8--8---7--7--7---6--6--6
6:----------------------------------------


1:----------------------------------------
2:----------------------------------------
3:---11-11-11--10-10-10--9--9--9---8--8--8
4:---11-11-11--10-10-10--9--9--9---8--8--8
5:---9--9--9---8--8--8---7--7--7---6--6--6
6:----------------------------------------


RE#
El futuro es ilusión
FA
El presente esta canción
RE#
El futuro puede ser
FA
Todo lo que imagine


LA#                     LAm
Floggers, punks, rocanroleros
SOLm                FA
Darkies y reggaetoneros
LA#                    LAm
Emos, góticos y hippies
SOLm                  FA
Heavis, freakis y raperos
RE#
Música y adrenalina
FA
El estadio se ilumina
RE#             FA
Música y adrenalina

Cómo será el futuro?
                    LA#
Y yo que sé!

El material contenido en esta página es para exclusivo uso privado y con propósito meramente educativo, se prohibe su reproducción y uso con fines comerciales