Intro - Evangelion

Acordes de la canción 'Intro - Evangelion' de Música de TV

Versiones de esta canción: Letra y acordes - Tablatura para guitarra (TAB)

Bueno este es el famoso tema del intro de evangelion, ahora lo debi poner
en español ya que la pagina no acepta temas en otros idiomas asi que
pueden buscar el intro en latino y sabran como es en japones :)


Recomiendo usar un cejillo y acomodarlo en el 1º o 3º de los trastes
 y acomoden las notas ahi.

Cm  Fm       Bb        Eb
Así como un despiadado ángel
Cm  Fm       Gm        Abmaj7
joven Mesías llega a ser leyenda.

Cm Fm Bb Eb
Cm Fm Bb Cm
d|----------------8-6-5--5---5-8-10-----8-8-5-8-8-10-|
a|---6-8-6--8-8-8------8-----------8-6---------------|
E|-8-------------------------------------------------|

Eb         Bb
Ahora el viento azul
Cm      Bb     Abmaj7
golpea la puerta de tu corazón
Bbsus2 Bb         Eb     Cm
solamente estas contemplándome así
 Dm7       F    G
con esa sonrisa cándida.

Eb           Bb
Algo enternecedor
 Cm     Bb      Abmaj7
es lo que tus buscas con obcecación
Bbsus2 Bb         Eb     Cm
y no puedes ver tu destino así
Dm7             E| 1--3--4--6-|
con ojos tan inocentes.

Abmaj7        Gm7
Yo creo qué algún día
Cm7                       Fm7
podrás darte cuenta que en tu espalda.
Abmaj7              Gm7
Llevas las alas que rumbo
Cm7           Ddim          F G
al lejano futuro te llevaran

Cm Fm      Bb        Eb
La premisa del despiadado ángel
Cm Fm      Bb        Eb
a través del portal de tu alma volara
Cm Fm      Bb        Eb
si por solo un instante de tibio dolor
Cm Fm     Bb      Bb--Cm
al templo de tus recuerdos traicionaras.
Cm Fm      Bb        Eb
Abrazando este cielo resplandecerás
Cm Fm     Bb      Bb--Cm
joven Mesías llega a ser leyenda.


Primero les recomiendo tocar cada acorde con quintas, asi veran todos los
tonos y donde cae cada nota en la version en japones XD
Versión 2 - Intro - Evangelion (Tablatura para guitarra (TAB))
E||-------0----2---0---2--|--2--2--7--5--4-2--4-----|--4----7----9-------0--|
B||--2--------------------|-------------------------|----------------7------|
G||-----------------------|-------------------------|-----------------------|


--7--7--4--7--7---9-----|------------------|------0------------0--|
------------------------|------------------|---------0-0----------|
------------------------|------------------|----------------------|


--0---2----------------|--4---5---4--2---0---2--|--4---5---4-------------|
----------0--0------0--|------------------------|-------------2------2-4-|
-----------------------|------------------------|------------------------|


--0---0-------------0-2-|--5---4---2--0------4--|--4---2---1--2---------|
----------4--4----------|-----------------------|------------------2----|
------------------------|-----------------------|-----------------------|


---------------------|------0-----------0--|--0---2----------------|
--2------4--4--------|----------0----------|----------0--0------0--|
---------------------|---------------------|-----------------------|


--4---5---4--2---0---2--|--4---5---4-------------|--0---0-------------0-2-|
------------------------|-------------2------2-4-|----------4--4----------|
------------------------|------------------------|------------------------|


--5---4---2--0------4--|--4---2---1--2---4---5--|--4----------------|
-----------------------|------------------------|-------------------|
-----------------------|------------------------|-------------------|


--0----0-------0----0-------|--2----2----0---------------|
------------4------------4--|---------------4----2----4--|
----------------------------|----------------------------|


--0----0-------2------------|-------------------|--0----0-------0----0-------|
------------4-------4----2--|--0----------------|------------4--2----2----4--|
----------------------------|-------------------|-------------------------4--|


--2----2----0-------0----2--|--4----5----4--2----0----2--|--4----------------|
--4----4----2--4----2----4--|--4----4----4--4----2----4--|-------------------|
---------------4------------|----------------------------|--5----------------|


-----------------------|--------7--5--4-2--4-----|--4----7----9-------0--|
-------5----7---5---7--|--7--7-------------------|----------------7------|
--6--------------------|-------------------------|-----------------------|


--------------2-0--0-----|-------0----2---0---2--|--2--2--7--5--4-2--4-----|
--4--4--2--4-------------|--2--------------------|-------------------------|
-------------------------|-----------------------|-------------------------|


--4----7----9-------0--|--7--7--4--7--7---9-----|-----------------------|
----------------7------|------------------------|-------5----7---5---7--|
-----------------------|------------------------|--6--------------------|


--------7--5--4-2--4-----|--4----7----9-------0--|--7--7--4--7--7---9-----||
--7--7-------------------|----------------7------|------------------------||
-------------------------|-----------------------|------------------------||

El material contenido en esta página es para exclusivo uso privado y con propósito meramente educativo, se prohibe su reproducción y uso con fines comerciales