Mi amor el wachiman - mi estrella

Acordes de la canción 'Mi amor el wachiman - mi estrella' de Música de TV

Versiones de esta canción: Letra y acordes - Letra y acordes - Letra y acordes - Tablatura para guitarra (TAB)

holas .... es mi primera transcripcion espero les guste
 dudas  al correo soloyopuedo8@hotmail.com
y disculpen si es que esta mal ..saludos...(H Y M)

INTRO:G-Em-C-D


e--3-5-7--5-7-5-7-10-3-8-7-5-3-2
B-3-----------------------------
G-------------------------------
D-------------------------------
A-------------------------------
E-------------------------------


Christian:
       ´  G
Quien eres tu mi dulce amor
          Em
quien eres tuuu
             C
quien transformo
                        D
aquella lluvia en primavera.

Maria Grazia:
             G
Cuando estas tu
                     Em
escucho el viento caminar
         C                       D
quiero hablarte de mi vida este momento


Christian:
             G
que tu eres hoy mi estrella
             Em
que he sido tan feliz
          C
y cuando tu me acaricias
              D
me llevas al cielo

Maria Grazia:
         G
Y me volviste loca
         Em
cuando bese tus labios

Christian:
           C
Pero esta noche tan linda
            D
te quiero deciiiirr

Coro: (Bis)
             G
que tu eres hoy mi estrella
                  Em
que nunca he sido tan feliz
         C
que solo vivo por ti
        D
amor primeroo!
             G
que tu eres hoy mi estrella
                  Em
que ya no puedo estar sin ti
          C
nunca te vayas de mi
        D
amor primeroo!

-----]H.guitar.M[-----..:D
Versión 2 - Mi amor el wachiman - mi estrella (Letra y acordes)
           G                           Em
Quien eres tu mi dulce amor quien eres tu
             C                         D
que transforma aquella lluvia en primavera
              G                      Em
cuando estas tu escucho al viento caminar
              C                     D
quiero hablarte de mi vida este momento

                     G
Que tu eres hoy mi estrella
         Em
que sido tan feliz
             C                      D
cuando tu me acaricias me llevas al cielo
         G                   Em
y me volviste loca cuando bese tus labios
         C                          D
en esta noche tan linda yo quiero decir

CORO:

                    G
Que tu eres hoy mi estrella
                   Em
que nunca he sido tan feliz
        C               D
y solo vivo por ti amor primero
                   G                     Em
y tu eres hoy mi estrella ya no puedo estar sin ti
          C                  D
nunca te vallas de mi amor primero
                     G
que tu eres hoy mi estrella
                   Em
que nunca he sido tan feliz
               C          D
y solo vivo por ti amor primero
                 G                      Em
y tu eres hoy mi estrella ya no puedo estar sin ti
          C               D
nunca te vallas de mi amor primero

amor..oo
hay amor


Se repite todo! ;) Es mi primer aporte espero les gustee
Versión 3 - Mi amor el wachiman - mi estrella (Letra y acordes)
christian dominguez y maria grazia gamarra : Mi estrella

           G
Quien eres tu mi dulce amor
           Em
quien eres tu
              C
quien transformo
                       D
aquella lluvia en primavera

             G
Cuando estas tu
                      Em
escucho el viento caminar
    C                                  D
Y quiero hablarte de mi vida este momento

                     G
que tu eres hoy mi estrella
             Em
que he sido tan feliz
          C
y cuando tu me acaricias
               D
me llevas al cielo

             G
Y me volviste loca
        Em
cuando bese tus labios
           C
Pero esta noche tan linda
            D
te quiero deciiiirr

Coro: (Bis)
                      G
que tu eres hoy mi estrella
                  Em
que nunca he sido tan feliz
          C
que solo vivo por ti
        D
amor primeroo!

                      G
que tu eres hoy mi estrella
                  Em
que ya no puedo estar sin ti
          C
nunca te vayas de mi
        D    G
amor primerooOOOOOOOO



para mi amoxito lindo que la quieron y la amo un monton
ya son varios años juntos y espero que esto no termine nunca te amo kathia
aldairxts@hotmail.es
Versión 4 - Mi amor el wachiman - mi estrella (Tablatura para guitarra (TAB))
este es primer post espero que les guste ...

INTRO....
el------3-5-7--5-7-5-7-10-3-8-7-5-3-2--l
Bl-3--------------------------------------------l
G-----------------------------------------------|
D-----------------------------------------------|
A-----------------------------------------------|
E-----------------------------------------------|

Coro : mi amor el wachiman

Que tú eres hoy mi estreeeellaaaa
e---------------3----1----3----3---------------|
B-3----3---3-----------------------------------|
G-----------------------------------------------|
D-----------------------------------------------|
A-----------------------------------------------|
E-----------------------------------------------|


Que nunca he sido taaaan feliiiz
e-------------------3--1--3--5---3-----------|
B-3----3-----3--------------------------------|
G----------------------------------------------|
D----------------------------------------------|
A----------------------------------------------|
E----------------------------------------------|


Que solo vivo por tiiii amor primerooo
e-3---3-3---3-3--3-3-------5--3--1--0--1---|
B--------------------------------------------------|
G--------------------------------------------------|
D--------------------------------------------------|
A--------------------------------------------------|
E--------------------------------------------------|


Que tu eres hoy mi estrellaaaa
ee---------------3----1----3----3---------------|
B-3----3---3-------------------------------------|
G--------------------------------------------------|
D--------------------------------------------------|
A--------------------------------------------------|
E--------------------------------------------------|


Que ya no puedo estar sin ti
e-------------------3--1--3--5---3-----------|
B-3----3-----3--------------------------------|
G-----------------------------------------------|
D-----------------------------------------------|
A-----------------------------------------------|
E-----------------------------------------------|


Nunca te vayas de miiiii amor primerooooo
e-3---3-3---3-3--3-3-------5--3--1--0--1---|
B--------------------------------------------------|
G--------------------------------------------------|
D--------------------------------------------------|
A--------------------------------------------------|
E--------------------------------------------------|

Ay amor   uuuuu
Ay amor    uuuuu


FIN......es facil.......de Miguel Arocutipa....ñ.ñ

El material contenido en esta página es para exclusivo uso privado y con propósito meramente educativo, se prohibe su reproducción y uso con fines comerciales