Metal gear solid

Acordes de la canción 'Metal gear solid' de Música de TV

---------------------------------------------------
----5--3----3--5--0--5--3----3--5------------------
----------5----------------5-----------------------
---------------------------------------------------
---------------------------------------------------
---------------------------------------------------





-5-3---------5-8-7-8-10-8-----------7-8-7-----------
-----5--3-5----------------10-8-10---------10--8--10
------5---------------------------------------------
----------------------------------------------------
----------------------------------------------------
----------------------------------------------------



Nota: Si quieren alargar el tema hagan lo mismo en el traste 7

El material contenido en esta página es para exclusivo uso privado y con propósito meramente educativo, se prohibe su reproducción y uso con fines comerciales