Los Locos Adams

Acordes de la canción 'Los Locos Adams' de Música de TV

Versiones de esta canción: Tablatura para guitarra (TAB) - Tablatura para guitarra (TAB)

e--------------------------------------------------------------------------
B--------------------------------------------------------------------------
G--------------------------------------------------------------------------
D----------------------------0--*--*-----------0-----------0---------------
A----0--2--3--*--*--0--2--4-----------0--2--4-----0--2--4--------0--2--3--*
E-3-----------------------------------------------------------3------------


e--------------------------------------------------------------------------
B--------------------------------------------------------------------------
G--------------------------------------------------------------------------
D-------------------------------0--*--*-----------0-----------0------------
A-*-----0--2--3--*--*--0--2--4-----------0--2--4-----0--2--4--------0--2--3
E----3-----------------------------------------------------------3---------


e-------------0-----------------------------------------0------------------
B----------1-----1--------3-----0--3--0--------1-----1-----1--------3--1--0
G-------0-----------2--------3-----------0--------0-----------2------------
D----------------------3--------------------2--------------------3---------
A-*--*---------------------------------------------------------------------
E--------------------------------------------------------------------------


e-------------------0-----------------------------------------0------------
B-------0--1-----1-----1--------3-----0--3--0--------1-----1-----1--------3
G-0--2--------0-----------2--------3-----------0--------0-----------2------
D----------------------------3--------------------2--------------------3---
A--------------------------------------------------------------------------
E--------------------------------------------------------------------------


e-------------------------------------------------
B-1--0--------0--1--------------------------------
G-------0--2--------------------------------------
D-------------------------------------------------
A-------------------------------------------------
E-------------------------------------------------
LA TAB STA FACYL
VYVA PXNDX Y LA GUYTARRA S LA NETA
Versión 2 - Los Locos Adams (Tablatura para guitarra (TAB))
X=TRONAR LOS DEDOS

e|-----------X-X-----------X-X---
B|------0-1--X-X----0-2-3--X-X---
G|--0-2------X-X--2--------X-X---
D|-----------X-X-----------X-X---
A|-----------X-X-----------X-X---
E|-----------X-X-----------X-X---

e|------------------------------X-X---
B|----0-2-3----0-2-3------0-1---X-X---
G|--2--------2--------0-2-------X-X---
D|------------------------------X-X---
A|------------------------------X-X---
E|------------------------------X-X---

e|------0-------------------------------
B|----1---1----3----0-0-3-0-----1-------
G|--0-------2---------------0-----------
D|------------3---------------2---------
A|--------------------------------------
E|--------------------------------------

e|------0----------------------------
B|----1---1----3-----0-0------0-1----
G|--0-------2-------------0-2--------
D|------------3----------------------
A|-----------------------------------
E|-----------------------------------

REPITANLA CUANTAS VECES QUIERAN...

El material contenido en esta página es para exclusivo uso privado y con propósito meramente educativo, se prohibe su reproducción y uso con fines comerciales