Juego de tronos - tema principal

Acordes de la canción 'Juego de tronos - tema principal' de Música de TV

PRIMERA PARTE:


E|--------------------|       E|--------------------|
B|--------------------|       B|--------------------|
G|--------------------|       G|--------------------|
D|----7--0--3--5--7--0|  X4   D|---7--0--4--5--7--0-|  x4
A|--------------------|       A|--------------------|
E|--------------------|       E|--------------------|


E|---5-----------------1h3-5-----------------|
B|------------3---------------------3--------|
G|-------------------------------------------|
D|---0--0--0--0--0--0--0---0--0--0--0--0--0--|
A|-------------------------------------------|
E|-------------------------------------------|


E|--1h3-5-----------------1h3-0------|
B|---------------3-------------------|
G|-----------------------------------|
D|--0---0--0--0--0--0--0--0---0------|
A|-----------------------------------|
E|-----------------------------------|


E|-------------------------------------------|
B|-------------------------------------------|
G|-------------------------------------------|
D|--2-------0--2--------0--2-------0--2--0---|
A|----0--3--------0--3--------0--3---------3-|
E|-------------------------------------------|


E|--3-----------------1p-3-----------------1p----|
B|-----------1--------------------1-----------3--|
G|-----------------------------------------------|
D|-----------------------------------------------|
A|--3--3--3--3--3--3--3--3--3--3--3--3--3--3--3--|
E|-----------------------------------------------|


E|----------------------------------|
B|----------------------------------|
G|----------------------------------|
D|--0---------0--------0------------|
A|------1--3------1--3------1--3--0-|
E|----3---------3---------3---------|


SEGUNDA PARTE: LA# - Fam - Solm - Rem
               LA# - FAm - LAm - REm

El material contenido en esta página es para exclusivo uso privado y con propósito meramente educativo, se prohibe su reproducción y uso con fines comerciales