Familia Munster

Acordes de la canción 'Familia Munster' de Música de TV

Espero que les guste esta trascripción, ya que
la saque de oído; pero esta facil y chida pal
desmadre.

E||----------------------------------------|
B||----------------------------------------|
G||----------------------------------------|
D||-----------------2----------------------|
A||-----------1--2-----3--2--0-------------|
E||--0--3--0-------------------------------|


E||----------------------------------------|
B||----------------------------------------|
G||----------------------------------------|
D||----------------------------------------|
A||--2--0-----0----------------------------|
E||--------3-----3--2--3--2--0-5/7--0-5/7--|


En el programa se escucha como requinto,
Por eso la pueden tocar también de la
Siguiente forma.


E||--0--3--0--6--7--12---8--7--5-----------|
B||----------------------------------------|
G||----------------------------------------|
D||----------------------------------------|
A||----------------------------------------|
E||----------------------------------------|

E||--7--5--3--5--3--2--3--2--0-------------|
B||----------------------------------------|
G||----------------------------------------|
D||----------------------------------------|
A||----------------------------------------|
E||----------------------------------------|


Luego les paso lo demas, namas dejen lo saco,
Pa cualquier problem hay sta mi correo.
¡Arriba el América y la Voca 3¡

El material contenido en esta página es para exclusivo uso privado y con propósito meramente educativo, se prohibe su reproducción y uso con fines comerciales