El chavo del 8

Acordes de la canción 'El chavo del 8' de Música de TV

Versiones de esta canción: Tablatura para guitarra (TAB) - Tablatura para guitarra (TAB) - Tablatura para guitarra (TAB) - Tablatura para guitarra (TAB) - Notas para armónica

1e-3-0-0-0--3-0-0----12-10-8-7-5-3-1-0-1-3-(3)-------------------------
2b---------------------------------------------------------------------
3g---------------------------------------------------------------------
4D---------------------------------------------------------------------
5A---------------------------------------------------------------------
6E---------------------------------------------------------------------

1e-3-0-0-0--3-0-0----12-10-8-7-5-3--4-5-(5)-----------------------------
2b----------------------------------------------------------------------
3g----------------------------------------------------------------------
4D----------------------------------------------------------------------
5A----------------------------------------------------------------------
6E----------------------------------------------------------------------

1e-7-5-5-5--10-7-7-7--10-7-10-7--12-8-8-8-------------------------------
2b----------------------------------------------------------------------
3g----------------------------------------------------------------------
4D----------------------------------------------------------------------
5A----------------------------------------------------------------------
6E----------------------------------------------------------------------

1e-3-0-0-0--3-0-0--12-10-8-7-5-3----------------------------------------
2b----------------------------------------------------------------------
3g----------------------------------------------------------------------
4D----------------------------------------------------------------------
5A----------------------------------------------------------------------
6E----------------------------------------------------------------------

HAY DOS FINALES ESTE:

1e-10-8--(8)--- ó este: 1e-7-8--(8)-------------------------------------
2b----------------------------------------------------------------------
3g----------------------------------------------------------------------
4D----------------------------------------------------------------------
5A----------------------------------------------------------------------
6E----------------------------------------------------------------------


HOLA SOY RUBEN MI MSN ES "RUBEN_LIRA_ 2007@HOTMAIL.COM"
ESPERO QUE LES GUSTE
SE LAS PUSE FACILITA ESTE ES OTRO MSN
"LIRA211205@(YAHOO.ES)O YAHOO.MUSICA.MX"
CONSEJO SI USAN BENDING EN TODAS (OS) LOS TONOS(NOTAS, TRASTES)
SEOIRA MAS REBA; COMO QUE SILBA LA GUITARRA ES ELECTRICA,
CREO QUE EN ACUSTICA TAMBIEN
CALIFIQUEN SI QUIEREN QUE PONGA MAS CANCIONES;
MI ESPECIALIZACION SON LOS
SOLOS(REQUINTOS)
ASI QUE DIGANME QUE CANCION DE SOLOS LES GUSTA Y SE LAS
SACARE "LA CANCION"
Versión 2 - El chavo del 8 (Tablatura para guitarra (TAB))
Pues es otra manera de tocar el tema, para mí suena mejor así..
ahi les va.

e|-----------------10-8-6--------------------------------10-8-6-----------|
B|-/6-------/6------------10-8-6-------6--/6-------/6-----------10-8-6-7-8|
G|----7-7-7----7-7---------------8-7-8-------7-7-7----7-7-----------------|
D|------------------------------------------------------------------------|
A|------------------------------------------------------------------------|
E|------------------------------------------------------------------------|

e|--/6-------/8----------8----8----/10----10------------------------------|
B|-----8-8-8----10-10-10---10---10-----11----11---------------------------|
G|------------------------------------------------------------------------|
D|------------------------------------------------------------------------|
A|------------------------------------------------------------------------|
E|------------------------------------------------------------------------|

e|-----------------10-8-6-------------------------------10-8-6-----------6|
B|-/6-------/6------------10-8-6-------6-/6-------/6-----------10-8-6-10--|
G|----7-7-7----7-7---------------8-7-8------7-7-7----7-7------------------|
D|------------------------------------------------------------------------|
A|------------------------------------------------------------------------|
E|------------------------------------------------------------------------|


e|--10----------6---------6-8-10-10-10-8-6---------6-8-8-8-8--------------|
B|-----10-10-10---8--8-10------------------10-8-10------------------------|
G|------------------------------------------------------------------------|
D|------------------------------------------------------------------------|
A|------------------------------------------------------------------------|
E|------------------------------------------------------------------------|
--La misma línea continúa abajo

e|-------------------6-8-8-8-6--------------------------------------------|
B|-8-8-8-10-6-6-8-10-----------10-8-6-------------------------------------|
G|------------------------------------------------------------------------|
D|------------------------------------------------------------------------|
A|------------------------------------------------------------------------|
E|------------------------------------------------------------------------|

Espero que les haya sido útil.

Opiniones al correo por favor.. sean buenas o malas..
Versión 3 - El chavo del 8 (Tablatura para guitarra (TAB))
La musica de entrada del programa corresponde al artista
Jean Jacques Perrey y se llama "the elephant never Forgets"
de su disco "Moog Indigo".
El tema "The elehants never forgets" fue basado en la marcha
turca de las Ruinas de Atenas (grabada el 9 de abril de 1920)
y el autor es Ludwig Van Beethoven.

(A)

1e--0-------0------9-7----------------0--------|
2b----2-2-2---2-2------10-9-7-------3----------|
3g----------------------------9-7-6------------|
4D-------------------0-------------------------|
5A--0------------------------------------------|
6E------4---2---0-------------0---5-4-2--0h2h4-|

|-0-------0------9-7------------------
|---2-2-2---2-2------10-9-7---9-10----
|---------------------------9---------
|------------------0------------------
|-0-----------------------------0-----
|-----4---2---0-------------0------T5-

(B)

1e--5-0-0-0-7-----7---7---9----9----
2b------------9-9---9---9---10---10-
3g----------------------------------
4D------4-------6-----6-------------
5A------------------------0----7----
6E--2-------0-----0-----------------

(A)

(C)


1e-9------------------------9--9-9-7---7---------------|
2b---9-9-9-10-------9-10-12----------9---7-10---7-9-10-|
3g------------11-11---------------------------9--------|
4D-----------------------------------------------------|
5A-----8---9----------------11-------9-----------------|
6E-9-------------9---------------9------------0--------|

|-7--------------------7-7-7------------
|---7-7-7-9-----7-9-10-------10-9-7-----
|-----------9-9---------------------9---
|---------------------------------------
|-----6---7------------9--------7-------
|-7-----------7------------7------7-0---

este tema es clave para impresionar a los pibes
pero hay que laburarlo bastante para que salga
Versión 4 - El chavo del 8 (Tablatura para guitarra (TAB))
Es muy facil de aprender.
Les recomiendo que para que la entiendan bien
se ayuden con esto http
://www.chavodel8.com/videos/introducciones/elchavo-1976.php

E----------------------------------------
B---5-5-5---5-5-5----5---5---5-5---------
G-0-------0--------0---0---0-------------
D----------------------------------------
A----------------------------------------
E----------------------------------------
                                         _
E---------------------------------------- |
B---5-5-5---5-5-5----5---5---5-5--------- |
G-0-------0--------0---0---0------------- | Este es programa N1
D---------------------------------------- | de la television humoristica
A---------------------------------------- | EL CHAVO
E----------------------------------------_|

                                         _
E-3-0-0-0-3-0-0--|-8-7-5----------------| |
B----------------|-------8-6-5-3--------| |
G----------------|---------------5-7-9--| |
D----------------|----------------------| |
A----------------|----------------------| |
E----------------|----------------------| | Interpretado por el
                       TOCAR RÁPIDO       | super comediante
                                          | Chespirito
E-3-0-0-0-3-0-0--|-8-7-5----------------| |
B----------------|--------8-6-5--8-10---| |
G----------------|----------------------| |
D----------------|----------------------| |
A----------------|----------------------| |
E----------------|----------------------|_|
                       TOCAR RÁPIDO

                                         _
E-8-5-5-5--10-7-7-7--10-7-10-7--12-8-12-8 |
B---------------------------------------- |
G---------------------------------------- | Con Carlos Villagran
D---------------------------------------- | como Quico
A---------------------------------------- |
E----------------------------------------_|

                                         _
E-3-0-0-0-3-0-0--|-8-7-5----------------| |
B----------------|-------8-6-5-3--------| |
G----------------|---------------5-7-9--| |Ramon Valdez como
D----------------|----------------------| |Don Ramon
A----------------|----------------------| |
E----------------|----------------------|_|
                       TOCAR RÁPIDO
                                         _
E-3-0-0-0-3-0-0--|-8-7-5----------------| |
B----------------|--------8-6-5--8-10---| |
G----------------|----------------------| |Florinda Meza como
D----------------|----------------------| |Doña Florinda
A----------------|----------------------| |
E----------------|----------------------|_|
                       TOCAR RÁPIDO
                                         _
E-10-5-5-5--6-3---3-5-6/8-8/10-10-10-8--- |
B---------------------------------------- |
G---------------------------------------- | y Como Popis
D---------------------------------------- |
A---------------------------------------- |
E---------------------------------------- |
                                          |
E-6-8-6-8---3-5-6/7-7/8-3-3-3-5-1-------- |
B---------------------------------------- |
G---------------------------------------- |
D---------------------------------------- |
A---------------------------------------- | Ruben Aguirre Como
E---------------------------------------- | EL Profesor Jirafales
                                          |
E---------------------------------------- |
B-5-7-8-9-10-10-10-8-7-5-3--------------- |
G---------------------------------------- |
D---------------------------------------- |
A---------------------------------------- |
E----------------------------------------_|

                                         _
E-3-0-0-0-3-0-0--|-8-7-5----------------| |
B----------------|-------8-6-5-3--------| |
G----------------|---------------5-7-9--| |
D----------------|----------------------| |
A----------------|----------------------| |
E----------------|----------------------| | Edgar Vivar como
                       TOCAR RÁPIDO       | El Señor Barriga
                                          |
E-3-0-0-0-3-0-0--|-8-7-5----------------| |
B----------------|--------8-6-5--8-10---| |
G----------------|----------------------| |
D----------------|----------------------| | Y como Ñoño
A----------------|----------------------| |
E----------------|----------------------|_|
                       TOCAR RÁPIDO

                                         _
E-8-5-5-5--10-7-7-7--10-7-10-7--12-8-12-8 |
B---------------------------------------- |
G---------------------------------------- | Y Maria Antonienta
D---------------------------------------- | de las Nieves
A---------------------------------------- | como la Chilindrina
E----------------------------------------_|

                                         _
E-3-0-0-0-3-0-0--|-8-7-5----------------| |
B----------------|-------8-6-5-3--------| |
G----------------|---------------5-7-9--| |Direccion General
D----------------|----------------------| |Enrique Segoviano
A----------------|----------------------| |
E----------------|----------------------|_|
                       TOCAR RÁPIDO
Espero que les guste.
Versión 5 - El chavo del 8 (Notas para armónica)
Se trata de la cortina del chavo del ocho.
Es fácil y divertida, solo pónganse a tocar.

5 4 4 4

5 4 4 4

(5) 5 (5) 5 (4) 4 (4) 4 (4) 5

5 4 4 4

5 4 4 4

(5) 5 (4) 4 (4) 4 (4) 5

5 4 4 4

6 5 5 5

6 5 6 5 (6) 5 (6) 5


Bueno, espero les sirva y les agrade.
Ante cualquier duda, no dejen de escribirme o agregarme al MSN.

El material contenido en esta página es para exclusivo uso privado y con propósito meramente educativo, se prohibe su reproducción y uso con fines comerciales