Dragon ball z - el poder nuestro es (2do opening)

Acordes de la canción 'Dragon ball z - el poder nuestro es (2do opening)' de Música de TV

Versiones de esta canción: Acordes para piano o teclado (con notas) - Tablatura para guitarra (TAB) - Letra y acordes - Tablatura para bajo (bass tab)

EL poder nuestro es

Em           D            C
Acercándose, el peligro viene ya
mi-mi mi-mi-mi–fa#-sol-sol-fa#-re-mi


    G     D      C    D/F#    Em
y para llorar no es el tiempo ahora
mi-mi-si-si-la-sol-sol-fa#-re-re-mi


Em                   D             C
y siento subir más y más la adrenalina
mi-mi mi-mi-mi–fa#-sol-sol-fa#-re-mi


    G      D  C       D/F#    Em
los héroes de la historia seremos
mi-mi-si-si-la-sol-sol-fa#-re-re-mi


C       D            G        B
Realidad tus sueños son..y serán
Si-la- re-  do-si-la-   si-sol-la-si


C         D         G                 C- B  B
listo estoy para poder pelear ¡victoria tendré!
Si-la-re-     do-si-la-la-si-si-   sol-sol-la-si-si


Em  D      C  D/F#     Em          Bm
Vue-la     ni - ño,    el poder, nuestro es
Sol-fa#     mi-re       re-mi-mi-re-si-si


Em  D   C    D      B5   D5   Em
hoy se- re- mos, Dragon Ball  Z
sol-fa#-mi-re-    si-si-re-mi-mi


       C                  D         Bm
procura llegar,            al final       y luchar,     con valor
mi-fa#-sol-sol-mi        -sol-sol-mi-     fa#-fa#-re    fa#-fa#-re





Em  D   C    D/F#   C         D        B     Em
en  los campos     deja las flores crecer ¡feliz!
Sol-fa#-mi-re       si-si-si-si-re-re-re-mi-fa#-mi



Em   D      C   D/F#       Em           Bm
Te   con - ver - ti         ras en_un, gran rival
Sol-fa#     mi-re       re-mi-mi-re-si-si



Em D     C  D    B5     D5  Em
a  ven- tu- ras podrás dis- frutar
sol-fa#-mi-re-    si-si-re-mi-mi



         C
en la línea hoy sin temor
mi-fa#-sol-sol-mi   -sol-sol-mi-



D/F#      Bm
el poder nuestro es
fa#-fa#-re-fa#-fa#-re


Em   D   C   D     C       D          Bm   Em
y    se- re- mos para siempre Dragon Ball   Z
Sol-fa#-mi-re     si-si-si-si-re-re-re-mi-fa#-mi



HOLA,ESTA ES MI SEGUNDA TRANSCRIPCION ESPERO KE LES SIRVA.
MANDEN SUS CORRECCIONES
Versión 2 - Dragon ball z - el poder nuestro es (2do opening) (Tablatura para guitarra (TAB))
e-------------------------------------------------
B--------------------------------(8-7--7—-7)------
G--9-7-9-9--9--9--11-11-9--7-9v------9---9--------
D-------------------------------------------------
A-------------------------------------------------
E-------------------------------------------------

e----7-7-5----------------------(7-10-7-6-5-------
B--5---------8-8-7------7-5v----------------8)----
G---------------------7---------------------------
D-------------------------------------------------
A-------------------------------------------------
E-------------------------------------------------

e-------------------------------------------------
B----5-----------------------7-5v---(8-7---7---7)-
G--7---9-9--9--9--11-11-9--7-------------9---9----
D-------------------------------------------------
A-------------------------------------------------
E-------------------------------------------------

e----7-7-5----------------------------------------
B--5--------8-8-7-------5v------------------------
G-------------------7-7---------------------------
D-----------------------------------4---4---------
A-----------------------------------2---2---------
E-------------------------------------------------

e---------10--------------------------------------
B---12-10------13-12-10-12------10-12-------------
G----------------------------12-------------------
D-------------------------------------------------
A-------------------------------------------------
E-------------------------------------------------

e--------10---------------------------------------
B--12-10------13-12-10-12-12-12-12-12-13-12-12v---
G-------------------------------------------------
D-------------------------------------------------
A-------------------------------------------------
E-------------------------------------------------

e--15-14-12-10---10-12-12---10--------------------
B------------------------------12-12--------------
G-------------------------------------------------
D-------------------------------------------------
A-------------------------------------------------
E-------------------------------------------------

e--15-14-12-10----------10-12-12------------------
B-----------------12-12---------------------------
G-------------------------------------------------
D-------------------------------------------------
A-------------------------------------------------
E-------------------------------------------------

e--12-14-15-15--12---15-15--12---14-14----14-14---
B--------------------------------------15-------15
G-------------------------------------------------
D-------------------------------------------------
A-------------------------------------------------
E-------------------------------------------------

e--15--14--12--10---8-8-8-10-10-10--7------14-15--
B-------------------------------------------------
G-------------------------------------------------
D-------------------------------------------------
A-------------------------------------------------
E-------------------------------------------------

v -> vibrato

() -> lo que esta entre parentesis son arreglos se pueden
omitir para mayor facilidad

Se debe fijar muy bien en los arreglos y cortes de la cancion
Versión 3 - Dragon ball z - el poder nuestro es (2do opening) (Letra y acordes)
Em           D            C
Acercándose, el peligro viene ya
    G     D      C    D       Em
y para llorar no es el tiempo ahora
Em                   D             C
y siento subir más y más la adrenalina
    G      D  C       D       Em
los héroes de la historia seremos

C       D            G         B
Realidad tus sueños hoy... serán
C         D         G                 Bm B  B
listo estoy para poder pelear ¡victoria tendré!

Em  D  C  D     Em          Bm
Vuela niño, el poder, nuestro es
Em  D C D      Bm    D    Em
hoy seremos, Dragon Ball  Z

       C                 Bm
Procura llegar,al final y luchar, con valor
Em D   C    D   C         D        B     Em
en los campos deja las flores crecer ¡feliz!

Em D  C  D  Em           Bm
Te convertirás en un, gran rival
Em D C D  Bm     D  Em
Aventuras podrás disfrutar

         C
en la línea hoy sin temor
D        Bm
el poder nuestro es
Em D C D     C       D          Bm   Em
y seremos para siempre Dragon Ball Z
Versión 4 - Dragon ball z - el poder nuestro es (2do opening) (Tablatura para bajo (bass tab))
Este el segundo openin' de Dragon Ball Z

INTRO

G|---------------------------------|---------------------------------|
D|-5-------------------------------|---------------------------------|
A|---------------------------------|---------------------------------|
E|---------------------------------|---------------------------------|

G|---------------------------------|---------------------------------|
D|---------------------------------|---------------------------------|
A|---------------------------------|---------------------------------|
E|---------------------------------|---------------------------------|

G|-7-------5-------4-------2-------|---------------------------------|
D|---------------------------------|-5-------4-------2---------------|
A|---------------------------------|-------------------------5-------|
E|---------------------------------|---------------------------------|

G|---------------------------------|---------------------------------|
D|-5--5--5-5-----------5-------5---|-5--5--5-5---------------5--5--5-|
A|---------------------------------|---------------------------------|
E|---------------------------------|---------------------------------|

G|---------------------------------|---------------------------------|
D|-5--5--5-5-----------5-------5---|-5--5--5-5---------------5--5--5-|
A|---------------------------------|---------------------------------|
E|---------------------------------|---------------------------------|

G|-5--5--5-5-----------5-------5---|-5--5--5-5--5--5-5---------------|
D|---------------------------------|---------------------------------|
A|---------------------------------|---------------------------------|
E|---------------------------------|---------------------------------|

G|-5-------4-------2---------------|-7---------------7---------------|
D|-------------------------5-------|---------------------------------|
A|---------------------------------|---------------------------------|
E|---------------------------------|---------------------------------|

VERSE

G|---------------------------------|---------------------------------|
D|---------------------------------|---------------------------------|
A|---------------------------------|-5---5---5---5---5---5---5---5---|
E|-0---0---0---0---0---0---0---0---|---------------------------------|

G|---------------------------------|---------------------------------|
D|---------------------------------|---------------------------------|
A|-3---3---3---3---3---3---3---3---|-3---3---3---3---3---3---3---3---|
E|---------------------------------|---------------------------------|

G|---------------------------------|---------------------------------|
D|---------------------------------|-------------5-------5---5---5---|
A|-------------5-------5---5---5---|-3---3---3-----------------------|
E|-3---3---3-----------------------|---------------------------------|

G|---------------------------------|---------------------------------|
D|---------------------------------|---------------------------------|
A|---------------------------------|-2---5---2---1-------------------|
E|-0---0---3---0-------3---0-------|---------------------5---3-------|

G|---------------------------------|---------------------------------|
D|---------------------------------|---------------------------------|
A|---------------------------------|-5---5---5---5---5---5---5---5---|
E|-0---0---0---0---0---0---0---0---|---------------------------------|

G|---------------------------------|---------------------------------|
D|---------------------------------|---------------------------------|
A|-3---3---3---3---3---3---3---3---|-3---3---3---3---3---3---3---3---|
E|---------------------------------|---------------------------------|

G|---------------------------------|---------------------------------|
D|---------------------------------|-------------5-------5---5---5---|
A|-------------5-------5---5---5---|-3---3---3-----------------------|
E|-3---3---3-----------------------|---------------------------------|

G|---------------------------------|---------------------------------|
D|---------------------------------|---------------------------------|
A|-------------------------2---5---|-----2-------2-------------------|
E|-0---0---3---0---5---3-----------|---------------------------------|

PRE-CHORUS

G|---------------------------------|---------------------------------|
D|---------------------------------|---------------------------------|
A|-3---3---3---3---3---3---3---5---|-----5---5---5---5---5---5---5---|
E|---------------------------------|---------------------------------|

G|---------------------------------|---------------------------------|
D|---------------------------------|---------------------------------|
A|---------------------------------|-2---2---2---2---2---2---2---2---|
E|-3---3---3---3---3---3---3---3---|---------------------------------|

G|---------------------------------|---------------------------------|
D|---------------------------------|---------------------------------|
A|-3---3---3---3---3---3---3---5---|-----5---5---5---5---5---5---5---|
E|---------------------------------|---------------------------------|

G|---------------------------------|---------------------------------|
D|---------------------------------|---------------------------------|
A|---------------------------------|-3---2---2---2-------------------|
E|-3---3---3---3---3---3---3---3---|---------------------------------|

CHORUS

G|---------------------------------|---------------------------------|
D|---------------------------------|---------------------------------|
A|---------------------------------|---------------------------------|
E|-0---0---0---0---0---0---0---0---|-0---0---0---0---0---0---0---0---|

G|---------------------------------|---------------------------------|
D|---------------------------------|---------------------------------|
A|-5---7-------7-------7---7---7---|-5---2-------2-------2---2---2---|
E|---------------------------------|---------------------------------|

G|---------------------------------|---------------------------------|
D|---------------------------------|---------------------------------|
A|---------------------------------|---------------------------------|
E|-0---0---0---0---0---0---0---0---|-0---0---0---0---0---0---0---0---|

G|---------------------------------|---------------------------------|
D|---------------------------------|-----------------5---4-----------|
A|-2---2-------5-------7-----------|-2---2---5---2-----------5---2---|
E|-----------------------------0---|---------------------------------|

G|---------------------------------|---------------------------------|
D|---------------------------------|---------------------------------|
A|-3---3---3---3---3---3---3---3---|-3---3---3---3---3---3---3---3---|
E|---------------------------------|---------------------------------|

G|---------------------------------|---------------------------------|
D|---------------------------------|---------------------------------|
A|-5---5---5---5---5---5---5---5---|---------------------------------|
E|---------------------------------|-7---7---7---7---7---7---7---7---|

G|---------------------------------|---------------------------------|
D|---------------------------------|---------------------------------|
A|---------------------------------|---------------------------------|
E|-0---0---0---0---0---0---0---0---|-0---0---0---0---0---0---0---0---|

G|---------------------------------|---------------------------------|
D|---------------------------------|---------------------------------|
A|-3----3----3-----5----5----5-----|---------------------------------|
E|---------------------------------|-7---7---7---7---7---------------|

G|---------------------------------|---------------------------------|
D|---------------------------------|---------------------------------|
A|-7-----------5-------------------|----2----1-----------------------|
E|-------------------------5-------|--------------5----3-----2---0---|

G|---------------------------------|---------------------------------|
D|---------------------------------|---------------------------------|
A|---------------------------------|---------------------------------|
E|-0---0---0---0---0---0---0---0---|-0---0---0---0---0---0---0---0---|

G|---------------------------------|---------------------------------|
D|---------------------------------|---------------------------------|
A|-5---7-------7-------7---7---7---|-5---2-------2-------2---2---2---|
E|---------------------------------|---------------------------------|

G|---------------------------------|---------------------------------|
D|---------------------------------|---------------------------------|
A|---------------------------------|---------------------------------|
E|-0---0---0---0---0---0---0---0---|-0---0---0---0---0---0---0---0---|

G|---------------------------------|---------------------------------|
D|---------------------------------|-----------------5---4-----------|
A|-2---2-------5-------7-----------|-2---2---5---2-----------5---2---|
E|-----------------------------0---|---------------------------------|

G|---------------------------------|---------------------------------|
D|---------------------------------|---------------------------------|
A|-3---3---3---3---3---3---3---3---|-3---3---3---3---3---3---3---3---|
E|---------------------------------|---------------------------------|

G|---------------------------------|---------------------------------|
D|---------------------------------|---------------------------------|
A|-5---5---5---5---5---5---5---5---|---------------------------------|
E|---------------------------------|-7---7---7---7---7---7---7---7---|

G|---------------------------------|---------------------------------|
D|---------------------------------|---------------------------------|
A|---------------------------------|---------------------------------|
E|-0---0---0---0---0---0---0---0---|-0---0---0---0---0---0---0---0---|

G|---------------------------------|---------------------------------|
D|---------------------------------|---------------------------------|
A|-3----3----3-----5----5----5-----|---------------------------------|
E|---------------------------------|-7---7---7---7---7---------------|

G|---------------------------------|---------------------------------|
D|---------------------------------|---------------------------------|
A|-7-----------5-------------------|----2----1-----------------------|
E|-------------------------5-------|--------------5----3-----2---0---|

El material contenido en esta página es para exclusivo uso privado y con propósito meramente educativo, se prohibe su reproducción y uso con fines comerciales