Dragon ball z - cortina sagaboo

Acordes de la canción 'Dragon ball z - cortina sagaboo' de Música de TV

Les dejo la tablatura de la cortina que sale antes de que empiece el
capítulo, con imágenes de lo que pasó el
episodio anterior. Ésta es de la saga de Majin Boo

e----11-13-13-13-13--13-15-16-15-13--11-13-11-13------------
B-13--------------------------------------------------------
G-----------------------------------------------------------
D-----------------------------------------------------------
A-----------------------------------------------------------
E-----------------------------------------------------------

e-----8-6-4-3-----------------------------------------------
B---9---------6-4-1-------1---------------------------------
G-8-----------------3-1-3-----------------------------------
D-----------------------------------------------------------
A-----------------------------------------------------------
E-----------------------------------------------------------

e----11-13-13-13-13--13-15-16-15-13--11-13-11-13------------
B-13--------------------------------------------------------
G-----------------------------------------------------------
D-----------------------------------------------------------
A-----------------------------------------------------------
E-----------------------------------------------------------

e-----8-6-4-3---------------------------------------------------------
B---9---------6-4-6---------------------------------------------------
G-8-----------------5-3-8-6-5-3-5-1-3-5--5-3-8-6-5-3-5-5-5-5-5-6-5-5-5
D---------------------------------------------------------------------
A---------------------------------------------------------------------
E---------------------------------------------------------------------

e----------------------------------1-3-4-1-1-1-3-4--3-4-6-4-1-1---1----
B---------------------------------------------------------------1------
G------8-10---13-12-10-8----8------------------------------------------
D-8-10-------------------10--------------------------------------------
A----------------------------------------------------------------------
E----------------------------------------------------------------------

El material contenido en esta página es para exclusivo uso privado y con propósito meramente educativo, se prohibe su reproducción y uso con fines comerciales