Dragon ball z - cha-la-head-cha-la

Acordes de la canción 'Dragon ball z - cha-la-head-cha-la' de Música de TV

Versiones de esta canción: Letra y acordes - Tablatura para guitarra (TAB) - Letra y acordes - Letra y acordes

La corrijo, tambien me gustaba mucho esta serie.

Intro:
e--7------------7-----------7-----------7---------
B----7--------7---7-------7---7-------7---7-------
G------9----9-------9---9-------9---9-------9-----   (¡Rapido!)
D--------9------------9-----------9-----------9---

E - D - C   (Sigan LA musica de intro con esto luego del arpegio)


E                            D
El cielo resplandece a mi alrededor (alrededor)
     C               G                       B7
al volar destellos brillan en las nubes sin fin,
  E                                 D
con libertad puedes cruzar hoy el cielo azul (el cielo azul)
       C                      G            B7
la verdad huye a un golpe de pronto en tí,

C#m            B           E
como si un volcán hiciera una erupción,
D
derrite un gran glaciar,
C#m                             B
podrás ver de cerca un gran dragón.


G   A   G    A
Cha-la-head-Cha-la,
D     G     A       F#
no importa lo que suceda,
Bm      G         C      A
siempre el ánimo mantendré,
G   A    G   A
Cha-la-Head-Cha-la,
D  G     A       F#     Bm
vibrante mi corazón siente emoción,
          A#
haré una Genki-Dama,
G   A   G   A
Cha-la-Head-Cha-la,
D  G        A    F#    Bm      G             C      A
no pienses nada sólo escucha, sueños hay en tu corazón,
G   A   G   A
Cha-la-Head-Cha-la,
D    G     A        F#
no importa lo que suceda,
 Bm                 A#
sonreiré el día de hoy.

Termino:  G E A# C D (Sigan LA musica)

e--10----------10----------10----------10--------------------
B----10------10--10------10--10------10--10-----10-10--------
G------12--12------12--12------12--12------12--------12------
D--------12----------12----------12----------12--------0-----
A------------------------------------------------------0-----


Todos los que vean estos geniales acordes, espero que se fijen de
la maravilla en esta musica ajena a lo que tocamos siempre.
Versión 2 - Dragon ball z - cha-la-head-cha-la (Tablatura para guitarra (TAB))
E|---------------------0-|--------0---------|---------------------|
B|-----------------------|------------------|---------------------|
G|--2-1---4-2-1---4-2----|--4-4-2-------0-2-|-4-5-----5-5-4-2-0-4-|
D|------2-------2--------|----------2-4-----|---------------------|
A|-----------------------|------------------|---------------------|
E|-----------------------|------------------|---------------------|


E|-------------------|
B|-------------------|
G|-2-1---4-2-1-------|
D|-----2-------2-----|
A|-------------------|
E|-------------------|



E|-------0-----0-----|---------------------|-------------------|
B|-------------------|---------------------|-2-----2-----------|
G|-4-4-2---4-2-------|-0-2-4-5-----5-4-2-4-|---1-1---4-2-1---2-|
D|---------------2-4-|---------------------|---------------4---|
A|-------------------|---------5-5---------|-------------------|
E|-------------------|---------------------|-------------------|


E|-----------------|----------------|
B|-----------------|----------------|
G|-1-1---2---2-1---|---2-1---2-1-2-4|
D|-----2---2-----2-|-2-----2--------|
A|-----------------|----------------|
E|-----------------|----------------|




E|---0-----0-|-2-3-2-0-2-3-0---|-3-3-2-2-0---0-|---0-----0-|
B|-3---3-3---|---------------3-|-----------3---|-3---3-3---|
G|-----------|-----------------|---------------|-----------|
D|-----------|-----------------|---------------|-----------|
A|-----------|-----------------|---------------|-----------|
E|-----------|-----------------|---------------|-----------|




E|-2-3-2-0-2-3-2-0---|------1-1-1-|
B|-----------------3-|------------|
G|-------------------|-4-5--------|
D|-------------------|------------|
A|-------------------|------------|
E|-------------------|------------|


E|---0-----0-|-2-3-2-0-2-3-2-0---|-3-3-2-2-0---0-|---0-----0-|
B|-3---3-3---|-----------------3-|-----------3---|-3---3-3---|
G|-----------|-------------------|---------------|-----------|
D|-----------|-------------------|---------------|-----------|
A|-----------|-------------------|---------------|-----------|
E|-----------|-------------------|---------------|-----------|


E|-2-3-2-0-2-3-2-0-|---------0-1-0-1-0-1-0-1-1|
B|-----------------|-3-----3------------------|
G|-----------------|---4-5--------------------|
D|-----------------|--------------------------|
A|-----------------|--------------------------|
E|-----------------|--------------------------|
Versión 3 - Dragon ball z - cha-la-head-cha-la (Letra y acordes)
La canción de mi serie favorita (jaja, tan hincha soy que la saque),
bueno ahi estan los acordes, disfrtenla:

E                                 D
El cielo resplandece a mi alrededor (alrededor)
    C                      G                       B7
al volar destellos brillan en las nubes sin fin,
  E                                                  D
con libertad puedes cruzar hoy el cielo azul (el cielo azul)
     C                      G                 B7
la verdad huye a un golpe de pronto en tí,

  C#m            B                           E
como si un volcán hiciera una erupción,
D
derrite un gran glaciar,
Bm                                G     A
podrás ver de cerca un gran dragón.


G   A   G    A
Cha-la-head-Cha-la,
D                 Bm
no importa lo que suceda,
G                          A
siempre el ánimo mantendré,
G   A    G   A
Cha-la-Head-Cha-la,
D                    Bm            G
vibrante mi corazón siente emoción,
A
haré una Genki-Dama,
G   A   G   A
Cha-la-Head-Cha-la,
D                   Bm            G                    A
no pienses nada sólo escucha,sueños hay en tu corazón,
G   A   G   A
Cha-la-Head-Cha-la,
D                 Bm
no importa lo que suceda,
G                      A         E
sonreiré el día de hoy.
Versión 4 - Dragon ball z - cha-la-head-cha-la (Letra y acordes)
La corrijo, tambien me gustaba mucho esta serie.

Intro:
e--7------------7-----------7-----------7---------
B----7--------7---7-------7---7-------7---7-------
G------9----9-------9---9-------9---9-------9-----   (¡Rapido!)
D--------9------------9-----------9-----------9---

E - D - C   (Sigan LA musica de intro con esto luego del arpegio)


E                            D
El cielo resplandece a mi alrededor (alrededor)
     C               G                       B7
al volar destellos brillan en las nubes sin fin,
  E                                 D
con libertad puedes cruzar hoy el cielo azul (el cielo azul)
       C                      G            B7
la verdad huye a un golpe de pronto en tí,

C#m            B           Aadd9    E
como si un volcán hiciera una erupción,      (el Aadd9 en su cuarta version)
D
derrite un gran glaciar,
C#m                             B
podrás ver de cerca un gran dragón.


G   A   G    A
Cha-la-head-Cha-la,
D     G     A       Bm
no importa lo que suceda,
G    D  Em        C     A
siempre el ánimo mantendré,
G   A    G   A
Cha-la-Head-Cha-la,
D  G     A       Bm      G
vibrante mi corazón siente emoción,
          A#
haré una Genki-Dama,
G   A   G   A
Cha-la-Head-Cha-la,
D  G        A    Bm    G  D    Em            C      A
no pienses nada sólo escucha, sueños hay en tu corazón,
G   A   G   A
Cha-la-Head-Cha-la,
D    G     A        Bm
no importa lo que suceda,
 G                  A#
sonreiré el día de hoy.

Termino:  G E A# C D (Sigan LA musica)

e--10----------10----------10----------10--------------------
B----10------10--10------10--10------10--10-----10-10--------
G------12--12------12--12------12--12------12--------12------
D--------12----------12----------12----------12--------0-----
A------------------------------------------------------0-----


Todos los que vean estos geniales acordes, espero que se fijen de
la maravilla en esta musica ajena a lo que tocamos siempre.

El material contenido en esta página es para exclusivo uso privado y con propósito meramente educativo, se prohibe su reproducción y uso con fines comerciales