Dragon Ball Z

Acordes de la canción 'Dragon Ball Z' de Música de TV

Versiones de esta canción: Letra y acordes - Tablatura para guitarra (TAB) - Notas para armónica

La corrijo, tambien me gustaba mucho esta serie.

Intro:
e--7------------7-----------7-----------7---------
B----7--------7---7-------7---7-------7---7-------
G------9----9-------9---9-------9---9-------9-----   (¡Rapido!)
D--------9------------9-----------9-----------9---

E - D - C   (Sigan LA musica de intro con esto luego del arpegio)


E                            D
El cielo resplandece a mi alrededor (alrededor)
     C               G                       B7
al volar destellos brillan en las nubes sin fin,
  E                                 D
con libertad puedes cruzar hoy el cielo azul (el cielo azul)
       C                      G            B7
la verdad huye a un golpe de pronto en tí,

C#m            B           E
como si un volcán hiciera una erupción,
D
derrite un gran glaciar,
C#m                             B
podrás ver de cerca un gran dragón.


G   A   G    A
Cha-la-head-Cha-la,
D     G     A       F#
no importa lo que suceda,
Bm      G         C      A
siempre el ánimo mantendré,
G   A    G   A
Cha-la-Head-Cha-la,
D  G     A       F#     Bm
vibrante mi corazón siente emoción,
          A#
haré una Genki-Dama,
G   A   G   A
Cha-la-Head-Cha-la,
D  G        A    F#    Bm      G             C      A
no pienses nada sólo escucha, sueños hay en tu corazón,
G   A   G   A
Cha-la-Head-Cha-la,
D    G     A        F#
no importa lo que suceda,
 Bm                 A#
sonreiré el día de hoy.

Termino:  G E F G A (Sigan LA musica)



Todos los que vean estos geniales acordes, espero que se fijen de
la maravilla en esta musica ajena a lo que tocamos siempre.
Versión 2 - Dragon Ball Z (Tablatura para guitarra (TAB))
PUTA KE KOBRADOR¡
 jajajaja.... 

AQUI ESTA LO QUE VENDRIA A SER EL PUNTEO DE LA CANCION DEL DIBUJO ANIMADO 
'DRAGON BALL Z', ES MUY FACIL Y LO HE TRATADO DE ORDENAR DE MANERA QUE LA 
PUEDAN ENTENDER FACILMENTE. ESPERO QUE LES GUSTE A TODOS.

 NOTA: EN LA PARTE QUE VIENE A SER EL SLIDE, SIMPLEMENTE HAGANLO UN POCO
       LENTO PARA QUE PUEDA SONAR MEJOR Y  TRATEN  DE DARLE UN EFECTO DE 
       LIGADO EN LA PARTE FINAL.

VERSO:
  .....  acercandose el peligro ............
E|-------------|-------------|------------------------|
B|-------------|-------------|------------------------|
G|-------------|-------------|---7-7-5-5--5-7-5-------| --REPETIR--
D|-7-9-10-10-7-|-7-9-10-10-7-|-7----------------7-7-9-|-- 2 VECES --
A|-------------|-------------|------------------------|
E|-------------|-------------|------------------------|

  .....  la vida un sueño por lograr.........
E|-------------------|------------------------------|
B|-----8-6-----------|-----8-6----------------------|
G|-9-7-----9-7-9-7-9-|-9-7-----9-7-7-9-9--7-9-9-7-9-|
D|-------------------|-------------------9----------|
A|-------------------|------------------------------|
E|-------------------|------------------------------|

CORO:
  ...... juega niño el poder nuestro es.......
E|-10-9-7----|----7-7--------|-10-9-7----|--------7-7-|
B|--------10-|-10-----10-7-7-|--------10-|-7-7-10-----|
G|-----------|---------------|-----------|------------|
D|-----------|---------------|-----------|------------|
A|-----------|---------------|-----------|------------|
E|-----------|---------------|-----------|------------|

  ...... goku llegara al final y luchar con.......
E|-7-9-10-10-7-|-9-10-7-|-7/9-9-6-|-7/9-9-6-|
B|-------------|--------|---------|---------|
G|-------------|--------|---------|---------|
D|-------------|--------|---------|---------|
A|-------------|--------|---------|---------|
E|-------------|--------|---------|---------|

  ...... en los campos deja las flores......
E|-10-9-7----|-----------------------|
B|--------10-|-7-7-7-9-9--9-7-9-9/10-|
G|-----------|-----------------------|
D|-----------|-----------------------|
A|-----------|-----------------------|
E|-----------|-----------------------|

  ..... te convertiras en ....
E|-10-9-7----|----7-7--------|-10-9-7----|--------7-7-|
B|--------10-|-10-----10-7-7-|--------10-|-7-7-10-----|
G|-----------|---------------|-----------|------------|
D|-----------|---------------|-----------|------------|
A|-----------|---------------|-----------|------------|
E|-----------|---------------|-----------|------------|

  ...... el gran luchador ........
E|-7-9-10-10-7-|-9-10-7-|-7/9-9-6-|-7/9-9-6-|
B|-------------|--------|---------|---------|
G|-------------|--------|---------|---------|
D|-------------|--------|---------|---------|
A|-------------|--------|---------|---------|
E|-------------|--------|---------|---------|

  ...... y veremos a las .........
E|-10-9-7----|-----------------------|
B|--------10-|-7-7-7-9-9--9-7-9-9/10-|
G|-----------|-----------------------|
D|-----------|-----------------------|
A|-----------|-----------------------|
E|-----------|-----------------------|

ESTE TAB ESTA DEDICADO COMO SIEMPRE PARA LA PERSONA QUE MAS AMO
ELLA SE LLAMA 'CANDY LISET LLERENA TITO', QUE CREO QUE LE GUSTA ESTE DIBUJO
TE AMO MUCHO CANDY Y ESO NADA LO CAMBIARA
***********KENNY AMA A CANDY****************
Versión 3 - Dragon Ball Z (Notas para armónica)
Aqui tienen La cancion de Dragon ball Z 2, la saga de majimbu.
(El Poder es nuestro)

55555(5)6(5)5(4)5
5(5)(6)(6)(6) 55(4)4(4)(5)
55555(5)6(5)5(4)5(5)
5(6)(6)(6) (5)(5)(4)4(4)(5)

546(5)5(4) 5 4(4)5
546(5)5(4) 5554(4)(5)55

6(5)5(4) 555 (4)4(4)
6(5)5(4) 5555(4)54 (5) 6

5(5)665 665 (5)(5)(4) (5)(5)(4)
6(5)5(4) 5555554 (5)6…..

6(5)5(4) 555 434
6(5)5(4) 44(4)55
5(5) 665 665 (5)(5)(4) (5)(5)(4)
6(5)5(4) 5555(4)54 (5) 6………………………


SalU2

El material contenido en esta página es para exclusivo uso privado y con propósito meramente educativo, se prohibe su reproducción y uso con fines comerciales