Dragon Ball GT - inicio

Acordes de la canción 'Dragon Ball GT - inicio' de Música de TV

E--0---0----------0---1---0---------------------------------------------------
B----------1---3--------------3--1--0---1---1----0--1---3---1---0------0------
G----------------------------------------------2-------------------2----------
D-----------------------------------------------------------------------------
A-----------------------------------------------------------------------------
E-----------------------------------------------------------------------------

E---------1-0---------0-1-0---------------------------------------------------
B-------1-----1-----3--------3--1--3----1--1--0--1-------1--1--1-1------------
G--0--2-----------------------------------------------------------------------
D-----------------------------------------------------2-----------------------
A-----------------------------------------------------------------------------
E-----------------------------------------------------------------------------

E-----------------------------------------------------------------------------
B--1------------1-------------------------------------------------------------
G-----3---1--3-----3--------3--3--3--3--3--1--0--1--3--1----1--1--1--1--0----0
D------------------------1-------------------------------------------------3--
A-----------------------------------------------------------------------------
E-----------------------------------------------------------------------------

E--------------------------1---1-1-1-1-1-----------1--------1--3-3-4----------
B--------0------0---0-1-3----1------------3--1--3----3---3--------------------
G--3--3----1--3---------------------------------------------------------------
D-----------------------------------------------------------------------------
A-----------------------------------------------------------------------------
E-----------------------------------------------------------------------------

E-------------------------------3-1-1--1--------------------------------------
B----------------------------------------4-3-4--1-3-4-4-1-4-4-1-4-------------
G--3--1-0-1----1--1-0-0-0---0-------------------------------------------------
D-----------------------------------------------------------------------------
A-----------------------------------------------------------------------------
E-----------------------------------------------------------------------------

E---1------------------------------------------------------3-1-1----1-3-------
B-1---4-3-1-1-----------------------1-3-3-4-1-3-3-4-1-1-----------4-----------
G--------------3---0-3-3-0-3-3-0-3--------------------------------------------
D-----------------------------------------------------------------------------
A-----------------------------------------------------------------------------
E-----------------------------------------------------------------------------

El material contenido en esta página es para exclusivo uso privado y con propósito meramente educativo, se prohibe su reproducción y uso con fines comerciales