Digimon 4 ending

Acordes de la canción 'Digimon 4 ending' de Música de TV

Versiones de esta canción: Letra y acordes - Letra y acordes - Tablatura para guitarra (TAB)

AHi les dejo el primer ending de digimon frontier es Castellano,
es decir en Español de España espero que este todo correcto
cualquier duda mi correo es dancab92@hotmail.com

SOL
Por muy lejos
RE            MIm   DO
que nos encontremos
RE
Hey!!

Intro: MIm RE DO RE x2


MI
Miro al cielo y no
LA                   DO RE
nunca estas cerca de mi
MI
Me pregunto si tu
LA                DO        RE
estarás viendo lo mismo que yo


DO#m     SOL#m
Estoy llorando
DO#m        SOL#m
guardo en mi pecho
LA           MI
sentimientos incumplidos
       SOL# 
que se hacen realidad

MI      SI
Y tu sonrisa
SOL#m         DO#m
se vuelve contra mi
LA
guardo tu amor
     SI         MI   MI7
en mi pobre corazón

       LA        SI
Despertaré, volveré
SOL#m        DO#m
en un mundo irreal
         LA     DO     RE
y mi corazón se vuelve junto a ti


Intro: MI SI LA SI MI

Espero que les haya gustado by dani ser
Versión 2 - Digimon 4 ending (Letra y acordes)
SOL             RE
No importa lo lejos que
       MIm       DO  RE
te encuentres tu

MI                  LA
He de llegar a ti
                    DO          RE
miro al cielo para ver donde estas
MI                  LA
y pienso que tal vez tu y yo lo mismo
DO       RE
podemos ver

DO#m     SOL#m
mis sentimiennto
DO#m      SOL#m
te alcanzara
LA                                SI
en mi corazon lo guardo siempre y en el futuro

MI         SI
ha de florecer
    SOL#m            DO#m
el sueño sera una realidad
            LA     SI                MI
no habra distancia que nos pueda separar

MI                  SI
y la inocensia nos dara
    SOL#m          DO#m
la fuerza que nos unira
        LA
y surgira
    DO     RE       MI
con tu sonrisa a la luz




Bueno, espero que les guste
nos vemos!!!!
Versión 3 - Digimon 4 ending (Tablatura para guitarra (TAB))
hola! gente esta es mi primera cancion que subo espero les guste cualquier
corrección es bien recibida, aclaro
que esta es la versión en español latino de digimon frontier
y no se muy bien poner los efectos en las tabs así que se las dejo normal
igual se escucha igual
a la grabación :)

G              D               Em             C - D
No importa lo lejos que te encuentres tuuuuu.
hey!

INTRO:  Em-D-C-D x2

primera parte

e)---------------------------------------------------------------------------
b)---------------------------------------------------------------------------
g)-----------------7-----9---7-----------------------------------------------
d)-------------9------9----------10--9---7---9--7----------9--9--7-----------
a)--7----10--------------------------------------------10--------------------
e)---------------------------------------------------------------------------

segunda parte

e)---------------------------------------------------------------
b)---------------------------------------------------------------
g)-----------------7-----9---7-----------------------------------
d)-------------9------9----------10--9---7---9-------------------
a)--7----10------------------------------------------------------
e)---------------------------------------------------------------

e)---------------------------------------
b)---------------------------------------
g)-------9---7---9---7-----9---7---9-----
d)----------------------9----------------
a)---10----------------------------------
e)---------------------------------------


al terminar la intro pasa de ser Em a ser E

verso:

E
Debe llegar a ti
Asus4              C           D
miro el cielo para ver donde estas
E
y pienso que tal vez
Asus4            C        D
tu y yo lo mismo podemos ver.
C#m7         F#7
Mis sentimientos
 C#m7  F#7
alcanzaran
      Asus4                     Bsus4
en mi corazon lo guardo siempre y en el futuro.
Asus4         Bsus4
Haaaa de florecer
     G#7                C#m7
el sueño sera una realidad
            Asus4
no habra distancia
Bsus4                 E-E7
que nos pueda separar
        Asus4        Bsus4
y la inocencia nos dara
     G#7             C#m7
la fuerza que nos unirá
        Asus4
y surgirá
    Bsus4          Em
con tu sonrisa la luuuuuz.

despues de Bsus4 vuelve a ser Em
para rematar con el intro como final...
bueno eso es todo, espero les sirva ^^

by seba_rata22

El material contenido en esta página es para exclusivo uso privado y con propósito meramente educativo, se prohibe su reproducción y uso con fines comerciales