Cuentos de la cripta

Acordes de la canción 'Cuentos de la cripta' de Música de TV

|-----------------------------------------|
|----------13-12--------------------------|
|----12-15-------12----------------12-----|
|-14----------------14----------14----10--|
|----------------------15-14-15-----------|
|-----------------------------------------|


|-----------------------------------------|
|-----------------------------------------|
|-----10-12-14-16-17-16-14----------------|
|9-12----------------------17-16-14/13-14-|
|-----------------------------------------|
|-----------------------------------------|

Tales From The Crypt theme song

saludos che espero ke sirva!
aguante el pank rock xP

El material contenido en esta página es para exclusivo uso privado y con propósito meramente educativo, se prohibe su reproducción y uso con fines comerciales