Your name high

Acordes de la canción 'Your name high' de Hillsong United

Versiones de esta canción: Tablatura para guitarra (TAB) - Letra y acordes

Intro 1:
----9---------12----
-10--------14-------
--------------------
--------------------
--------------------
--------------------

Intro 2: s
-9--12--14--12--9---7----
-10-14--15--14--10--9----
-------------------------
-------------------------
-------------------------
-------------------------

Verso:
------------------------
------------------------
------------------------
-4--------2-------------
-4--(x8)--0--(x8)---rpt-
------------------------

-----------------------------
--------------3--------------
-6--2--1-----------3------
-----------4-----------------
-----------------------------
-----------------------------

Coro :
---------------
------9-9h10---
-9-11----------
---------------
---------------
---------------
Versión 2 - Your name high (Letra y acordes)
INTRO:
      F#m            A            D            F#m  E
Oh Oh Oh....Oh Oh Oh Oh....Oh Oh Oh...Oh Oh Oh Oh

Estrofa
F#m        A
Aun siendo   inocente
F#m         A
En esa cruz
               D
Te diste por amor
      F#m         E
Libertad me entregaste
F#m         A
Borraste MI  pasado
F#m           A
Volvi a nacer
                D
Me diste salvacion
      F#m        E     D
A la muerte tu amor vencio

CORO:
      A                E
Vivo para exaltarte Jesus
      F#m              E
Vivo para exaltarte Jesus
        D               F#m   E
Cristo tu diste lo que nadie pudo dar
D
no importa mas lo que diran
       F#m            A           D              F#m  E
Libre soy....oh oh oh oh....oh oh oh....oh oh oh oh


Estrofa
F#m           A
El mundo esta   cambiando
F#m            A
Puedo escuchar
                D
La gente despertar
        F#m     E
Tu esperanza encuentran
F#m           A
Dejando atras  lo viejo
F#m            A
Me acerco a ti
                D
Venga tu reino Dios
      F#m       E    D
Te ofresco mi adoracion


PUENTE:
D        E
Mirando a  lo alto
F#m       E
A una voz  clamamos juntos
D              E
Nuestra pasion  servirte
F#m           E
Rendirte Dios  honor y gloria
D
Mirando a  lo alto
F#m       E
A una voz  clamamos juntos
D              E
Nuestra pasion  servirte
F#m        E
A ti Señor

-------------------------------------------------------
Esta es la version original de la cancion.
Tu version esta bastante interesante tambien.
Bendiciones.


Aqui una cancion muy buena pa too lo cabro bkn

disfrutenla arto

uuuuuuuu jesus

chile es pa Dios

va a comenzar la revolucion en chile oren arto

El material contenido en esta página es para exclusivo uso privado y con propósito meramente educativo, se prohibe su reproducción y uso con fines comerciales