Desde mi interior

Acordes de la canción 'Desde mi interior' de Hillsong United

Versiones de esta canción: Tablatura para guitarra (TAB) - Tablatura para guitarra (TAB) - Tablatura para guitarra (TAB) - Letra y acordes - Acordes para piano o teclado (con notas) - Tablatura para guitarra (TAB) - Letra y acordes

    F                    C           G
e ------------------12----------12------------------]
B ----------13--------------13------13--15--12------]  (x4)
G --12--14------14------12----------------------12--]

    F                 C         G
Mil veces te falle, mas tu fuiste fiel
            F             G         G
Tu gracia me levanto, me basta tu amor
       Am      F               C      G
Dios eterno tu luz por siempre brillara
        Am        F       C     G
Y tu gloria incomparable sin final

e ------------------12----------12------------------]
B ----------13--------------13------13--15--12------]  (x2)
G --12--14------14------12----------------------12--]

          F           C     G
Señor tu voluntad permanecera,
       F                  C      G
En ti me quiero perder en adoracion
       Am      F               C      G
Dios eterno tu luz por siempre brillara
        Am        F       C     G
Y tu gloria incomparable sin final

F           C
 De mi corazon te doy el control
Am             G             F
 Consume todo mi interior, Dios
              C               G
 Justicia y amor me abrazan señor
               Dm           F
 Te amo desde mi interior

e ------------------12----------12------------------]
B ----------13--------------13------13--15--12------]  (x2)
G --12--14------14------12----------------------12--]

     Señor tu voluntad...................



         Am      F               C      G
//Dios eterno tu luz por siempre brillara
        Am        F       C     G
Y tu gloria incomparable sin final
       C         F         G      Am
El clamor de mi ser es contigo estar
       F       G          F     G
Desde mi interior mi alma clamara// Dios
    F
e -------------------------------------------------------
B ----13-13-13-13-13-13-13-13-13-13-13-13-13-13-13-13----
G ---14-14-14-14-14-14-14-14-12-12-12-12-14-14-14-14-----
  se sigue bien el teimpo ya sea de bajo o acustica
    C
e --12-12-12-12-12-12-12-12-13-13-13-13-12-12-12-12----
B -13-13-13-13-13-13-13-13-13-13-13-13-13-13-13-13-----
G -----------------------------------------------------
    Am                                               G
e -------------------------------------------------------------
B --13--12--10--12--8---13--12--10--8----9---------------------
G -------------------------------------8---8--6--6/8---6-6/10--
D ---------------------------------------------------8---------
    F
e --------------12-12-12-12-12-12-12-12-----
B -------------13-13-13-13-13-13-13-13------
G --13--12--10------------------------------
    C
e --------------12-12-12-12-12-12-12-12-----
B -------------13-13-13-13-13-13-13-13------
G --13--12--10------------------------------
      G                                               Dm
e ----17-17-----17-17-----17-17-----17-17-----17-17-----19-19-19
B --15-----15-15-----15-15-----15-15-----15-15-----15-17--------
 F         C                  Am
De mi corazon te doy el control..............

justicia y amor

B -13-13-13-13-13-13-13-13-13-13-13-13-13-13-13-13---
G --14-14-14-14-14-14-14-14-12-12-12-12-14-14-14-14----

e --12-12-12-12-12-12-12-12-13-13-13-13-12-12-12-12----
B -13-13-13-13-13-13-13-13-13-13-13-13-13-13-13-13-----
G -----------------------------------------------------
       Am
coro( dios eterno tu luz por siempre brillara(x2)

B --13--12--10--13--12--10--13--12--10--10/12--8--6---]

Esta cancion le es de mucha bendicion en mi iglecia..
pidanle person a jesus
y ke el sea tu guia para la vida enterna...
un saludo a los muchachos de la alabanza
(oly,maleny,marcos,katie,joan,y jorge ke viene en camino)
le mando un saludo al pastor victor arturo y juanny los kiero mucho
ke dios los bendiga ((3xt4an0 m4m4) ) si tienen alguna pregunta
escribanme noriega_12cedblo@hot....
Versión 2 - Desde mi interior (Tablatura para guitarra (TAB))
e ------------------12----------12------------------]
B ----------13--------------13------13--15--12------]  (x4)
G --12--14------14------12----------------------12--]

    F                 C         G
A veces te falle, mas tu fuiste fiel
            F             G         G
Tu gracia me levanto, me basta tu amor
       Am      F               C      G
Dios eterno tu luz por siempre brillara
        Am        F       C     G
Y tu gloria incomparable sin final

e ------------------12----------12------------------]
B ----------13--------------13------13--15--12------]  (x2)
G --12--14------14------12----------------------12--]

          F           C     G
Señor tu voluntad permanecera,
       F                  C      G
En ti me quiero perder en adoracion
       Am      F               C      G
Dios eterno tu luz por siempre brillara
        Am        F       C     G
Y tu gloria incomparable sin final

F           C
 De mi corazon te doy el control
Am             G             F
 Consume todo mi interior, Dios
              C               G
 Justicia y amor me abrazan señor
               Dm           F
 Te amo desde mi interior

e ------------------12----------12------------------]
B ----------13--------------13------13--15--12------]  (x2)
G --12--14------14------12----------------------12--]

          F          C
Señor tu voluntad...


         Am      F               C      G
//Dios eterno tu luz por siempre brillara
        Am        F       C     G
Y tu gloria incomparable sin final
       C         F         G      Am
El clamor de mi ser es contigo estar
       F       G          F     G
Desde mi interior mi alma clamara//

Hola estas es mi primera transcripcion espero k les guste
jejeje agreguenme oviwan_x10@hot...byee DIOS los bendiga
Versión 3 - Desde mi interior (Tablatura para guitarra (TAB))
Intro: F, C, G (Acompañamiento)

Arpegio

e --------------------12-------12----------------]
B ----------13-------------13----13--15--12------]  (x4)
G --12-h14-----h12-14---12-------------------12--]

    F                 C         G
Mil veces te falle, mas tu fuiste fiel
            F             C         G
Tu gracia me levanto, me basta tu amor

Arpegio 2(Opcional solo para arreglo)

    Am         F       C       G
B -------5---------6-------5-------3--]
G ---------5-----5---5------5-------4-]
D ----7--------3---------5-------5----] (x2)
A --7------------------3-------5------]

       Am      F               C      G
Dios eterno tu luz por siempre brillara
        Am        F       C     G
Y tu gloria incomparable sin final

e --------------------12-------12----------------]
B ----------13-------------13----13--15--12------]  (x2)
G --12-h14-----h12-14---12-------------------12--]

          F           C     G
Señor tu voluntad permanecera,
       F                  C      G
En ti me quiero perder en adoracion

    Am         F       C       G
B -------5---------6-------5-------3--]
G ---------5-----5---5------5-------4-] (x2)
D ----7--------3---------5-------5----]
A --7------------------3-------5------]

       Am      F               C      G
Dios eterno tu luz por siempre brillara
        Am        F       C     G
Y tu gloria incomparable sin final

F           C
 De mi corazon te doy el control
Am             G             F
 Consume todo mi interior, Dios
              C               G
 Justicia y amor me abrazan señor
               Dm
 Te amo desde mi interior

e --------------------12-------12----------------]
B ----------13-------------13----13--15--12------]  (x2)
G --12-h14-----h12-14---12-------------------12--]


          F           C     G
Señor tu voluntad permanecera,
       F                  C      G
En ti me quiero perder en adoracion


    Am         F       C       G
B -------5---------6-------5-------3--]
G ---------5-----5---5------5-------4-] (x2)
D ----7--------3---------5-------5----]
A --7------------------3-------5------]

       Am      F               C      G
Dios eterno tu luz por siempre brillara
        Am        F       C     G
Y tu gloria incomparable sin final

F           C
 De mi corazon te doy el control
Am             G             F
 Consume todo mi interior, Dios
              C               G
 Justicia y amor me abrazan señor
               Dm
 Te amo desde mi interior

Con Distorción

       Am      F               C      G
Dios eterno tu luz por siempre brillara
        Am        F       C     G
Y tu gloria incomparable sin final

       C         F         G      Am
El clamor de mi ser es contigo estar
       F       G          F     G
Desde mi interior mi alma clamara... Dios

e --8-8-8-8-8-8-8-8-7-7-7-7-7-7-7-7-12-12-12-12-12-12-12-12-13-13-13-13-12-12-
B --8-8-8-8-8-8-8-8-8-8-8-8-8-8-8-8-13-13-13-13-13-13-13-13-13-13-13-13-13-13-
Acomoden al tiempo del bajo que si sale bastante bien...

B --13-12-------12----13-12-------12-------10---s8---s8-8p-p6-5-5----
G --------14-14----12-------14-14----12t-9----s7---s5----------7-7-5-
                                                        (muy rapido)

e --8-7-s12-12-12-12-12-12-12-12-
B --8-8-s13-13-13-13-13-13-13-13- (x2)

e ---------17----17---17----17----17-------19-
B --13-s15----15----15----15----15---15s17----


F           C
 De mi corazon te doy el control
Am             G             F
 Consume todo mi interior, Dios
              C               G
 Justicia y amor me abrazan señor

               Dm
 Te amo desde mi interior

       Am      F               C      G
//Dios eterno tu luz por siempre brillara
        Am        F       C     G
Y tu gloria incomparable sin final

       C         F         G      Am
El clamor de mi ser es contigo estar
       F       G          F     G
Desde mi interior mi alma clamara...//

       F       G          F     G
Desde mi interior mi alma clamara...


e ----------10--10-]
B --8--6------8----](x6) hasta el fin...
G --------9--------]


Bueno pos es lo mejorcito q pude hacer
esta alabanza es super chevere y de mucha
utilidad para usarse en ministraciones
suerte con practicarla bendiciones.

DavPatArev en Youtube

Eliel Band
Grupo de Alabanza
Iglesia Cristiana Evangélica
Filadelfia del Dios Viviente
Versión 4 - Desde mi interior (Letra y acordes)
Hola soy Jefferson Sandes de Uruguay,
Bueno esta correccion es porque la letra esta mal en
algunas partes... y tambien algunos acordes..
**********************************************************************
Al principio no es "A veces te falle"
Es "mil veces te falle"
(Lo vi en la letra original de la pagina de hillsong)
incluso no tiene mucha gracia el decir...
..aveces te falle...porque a Dios Mas que mil
veces le fallamos...OK
bueno espero que les guste como queda ahora!!


Intro: F C G  (6X)


 Verso I
          F             C          G
Mil veces te falle, Mas tu fuiste fiel
          F               C         G
Tu gracia me levanto, Me basta tu amor

Coro:
         Am       F               C    G
Mi Dios eterno tu luz por siempre brillara
       Am       F        C     G
Y tu gloria incomparable sin final.

Intro:F C G(x2)

Verso II
          F           C     G
Señor tu voluntad permanecera,
                F         C      G
En ti me quiero perder en adoración

Coro:
        Am        F                C    G
Mi Dios eterno tu luz por siempre brillara
      Am       F          C     G
Y tu gloria incomparable sin final.

Puente:
  F                  C                Am
Yeeee...  De mi Corazon te doy el control
             G                F
Consume todo mi interior, Dios,
               Am                G
Tu justicia y amor me abrazan Señor
               Dm
Te amo desde mi interior

Intro:F C G (x2)(Arranca bateria)

Verso II

           F
Señor tu voluntad ...(Repite el segundo verso)


Puente:

F
  De mi corazon...

Coro: (La voz masculina sube una octava)

      Am        F                C    G
Dios eterno tu luz por siempre brillara
      Am       F          C     G
Y tu gloria incomparable sin final
       C      F         G      Am
El clamor mi ser es contigo estar
       F       G            F    G
Desde mi interior mi alma clamara

(Solo)
F  C  Am  G  F  Am  G  Dm

Puente:
 F                   C
   De mi Corazon te ……..

Coro (2x)
      Am        F             C    G
Dios eterno tu luz por siempre brillara
      Am       F          C      G
Y tu gloria incomparable sin final
       C        F       G      Am
El clamor mi ser es contigo estar
       F        G         F     G
Desde mi interior mi alma clamara

final
       F        G          F    G    F
Desde mi interior mi alma clamaraaaa
Versión 5 - Desde mi interior (Acordes para piano o teclado (con notas))
Intro:
Fa               Do           Sol
sol la dó la mí- sol dó mí dó ré si sol (x6)

1era Estrófa:
          fa                do        sol
Do- dó si la sol la do- sol sol fa mi re
A   veces te fallé,     mas tú fuiste fiel,
          fa                do       sol
Re- dó si la sol la do- sol sol mi la re
Tu gracia me levantó,   me basta tu amor,

Coro:
      la        fa          do      sol
do re mi do- mi mi re do re mi re re
Dios eterno, tu luz por siempre brillará
      la        fa          do      sol
do re mi do- mi mi re do re mi re re
Y tu gloria, incomparable sin final.

Intro:
Fa               Do           Sol
sol la dó la mí- sol dó mí dó ré si sol (x2)

2da Estrofa:
          fa                do        sol
Do- dó si la sol la do- sol sol fa mi re
Señor, tu voluntad       permanecerá,
          fa                do       sol
Re- dó si la sol la do- sol sol mi la re
En ti me quiero perder   en adoración

Coro.

Prefacio:
     fa
si dó
             do                la
dó dó si la sol   dó dó si la sol-
De mi corazón     te doy el control,
                sol
dó dó si la sol sol la la
Consume todo mi interior,  Dios.
fa            la                sol
  dó dó si la sol - dó dó si la sol-
  Justicia y amor   me abrazan, Señor,
                re
dó dó si la sol mí fá mí
Te amo desde mi interior.

Intro (Con Ritmo)
Fa               Do           Sol
sol la dó la mí- sol dó mí dó ré si sol (x2)

Continúa:
2da Estrofa. Coro. Prefacio (Sin -si dó-)

Coro 2:
      la        fa          do      sol
do re mi do- mi mi re do re mi re re
Dios eterno, tu luz por siempre brillará
      la        fa          do      sol
do re mi do- mi mi re do re mi re re
Y tu gloria, incomparable sin final.
      do          fa       sol     la-
do re mi  fa mi do     re re mi   mi--
El clamor de mi ser- es conti-goe-s-tar
solfa       sol        fa        sol
re do    mi re do si do     mi re
desdemi nterior mi almacla -mara    Dios!!

Solo. Prefacio. Coro 2 (Sin Dios!!)(x2). --> FInal.


Canción escrita y sacada por Andrés Leal López. Quetzaltenango, Guatemala.
Si la desean en archivo word: escríbeme a: Andres.leal.91@hotmail.com
Versión 6 - Desde mi interior (Tablatura para guitarra (TAB))
Espero q les guste muxo....... es de muxa bendicion.....
si tienen alguna duda me agregan a mi correo...DtB

INTRO:

E -------------------------------------------------------
A -------------------------------------------------------
D -------------------------------------------------------
G -12h14--14------------12------------12~---------------- x4
B ------13----------------13--13-15-12-------------------
e -----------12-12~---------12---------------------------


SOLO:

E -------------------------------------------------------
A -------------------------------------------------------
D -------------------------------------------------------
G -------------------------------------------------------
B --10-10-10-10-10-10-10---8-8-8-8-8-8-8-----------------
e --8--8--8--8--8--8--8----8-8-8-8-8-8-8-----------------


E -------------------------------------------------------
A -------------------------------------------------------
D -------------------------------------------------------
G -------------------------------------------------------
B -13-13-13-13-13-13-13--13-13-13-13-13-13-13-13---------
e -12-12-12-12-12-12-12--13-13-13-13-12-12-12-12---------

E ---------------------------------------------------------
A ---------------------------------------------------------
D ---------------------------------------------------------
G --------------------------10-----9--9-7----9-9-----------
B ----10p8-8-----10-10-10-12------10---10-----10-12p10-13~-
e -8-7--------8p7------------------------------------------

E -------------------------------------------------------
A -------------------------------------------------------
D -------------------------------------------------------
G ------14--------------------------14-------------------
B -13-12---13--13-13-13-13-13--13-12---13-13-13-13-13-13-
e -------------12-12-12-12-12----------13-13-13-13-13-13-

E -------------------------------------------------------
A -------------------------------------------------------
D -------------------------------------------------------
G -------------------------------------------------------
B -15--15--15--15-----17-17------------------------------
e ---17--17--17--17--------19~~--------------------------


FINAL:

E -----------------------------------------------
A -----------------------------------------------
D -----------------------------------------------
G -12---------------12~--------------------12~---   x3
B ---13-------15-12----------13--13---15-12------
e -----12-12~--------------12--12----------------

E --------------------------------
A --------------------------------
D --------------------------------
G -12----------12-12/14~----------
B ---13--13-----------------------
e -----12-------------------------
Versión 7 - Desde mi interior (Letra y acordes)
Intro: /// FAdd9 - C  G ///
e)-----------12-------------12----10-------
B)------13----------------13--13----12-----
G)-12_14---14-----------12------------12---

Guión Bajo (Ej: 12_14): Hammer On

SOLO I
         FAdd9          C         G
Mil veces te fallé, mas tú fuiste fiel,
         FAdd9             C        G
tu gracia me levantó, me basta tu amor.

CORO
      Am       FAdd9            C      G
Dios eterno, tu luz por siempre brillará;
      Am      FAdd9       C      G
y tu gloria, incomparable sin final.

Intro...2x

SOLO II
        FAdd9         C     G
Señor tu voluntad permanecerá,
        FAdd9             C     G
en ti me quiero perder en adoración.

CORO...

PUENTE
  FAdd9            C                Am
Yeeee... De mi corazón te doy el control,
             G                  FAdd9
consume todo mi interior, Dios.
              Am                G
Tu justicia y amor me abrazan Señor.
             Dm
Te amo desde mi interior.

Intro...2x

SOLO II...

CORO...

PUENTE...

CORO...

ATTACHE
      C        FAdd9        G    Am
El clamor de mi ser, es contigo estar;
     FAdd9    G          FAdd9  G
desde mi interior mi alma clamará.

Solo Guitarra:
FAdd9 - C - Am - G
FAdd9 - Am - G - Dm

PUENTE...

CORO...

ATTACHE...

CORO...

ATTACHE...2x

Outtro: Fadd9
Si tienes un capo ponlo el traste #5, y pon los dedos como si
estuvieras haciendo un "Cadd9" y juega con todas las cuerdas y
así hallarás el arreglo que esta al final de la canción.

Cadd9 en el traste #5 = Fadd9
Asi sería un "Cadd9"
E)-3-
B)-3-
G)-0-
D)-2-
A)-3-
E)-0-


Aquí les dejo los acordes por si acaso, Dios les Bendiga:

FAdd9    C      G     Am     Dm
E)-3-  E)-3-  E)-3-  E)-0-  E)-1-
B)-1-  B)-1-  B)-0-  B)-1-  B)-3-
G)-2-  G)-0-  G)-0-  G)-2-  G)-2-
D)-3-  D)-2-  D)-0-  D)-2-  D)-0-
A)-0-  A)-3-  A)-2-  A)-0-  A)-0-
E)-1-  E)-0-  E)-3-  E)-0-  E)-X-

El material contenido en esta página es para exclusivo uso privado y con propósito meramente educativo, se prohibe su reproducción y uso con fines comerciales