Con Todo

Acordes de la canción 'Con Todo' de Hillsong United

Versiones de esta canción: Letra y acordes - Tablatura para guitarra (TAB) - Tablatura para guitarra (TAB)

Las Notas Estan pensadas para Bajo. Saludos!

Intro:
B F# G#m E
B F# G#m E


Verse 1:
B
Dejanos Ver
   F#            G#m
Lo que entristece tu corazon
   E            B
La iglesia que deseas tener
   F#      G#m        E
Refleja tu Luz


Verse 2:
B
Rompe Señor
   F#       G#m
Orgullo y muros en mi interior
   E       B
Mis sueños y coronas te doy
    F#       G#m          E
Me rindo a tus pies


Pre-Chorus:
   G#m   E       B
Tu luz da
    F#        G#m  E      B
Esperanza en la oscuridad
       F#
Que todos puedan ver

E     G#m   F#
Cristo Mi Dios
      C#m    E         F# (E)
Grande y digno de alabar

Verse 3:
B
Eterno Dios
F#      G#m
Glorioso en todo eres Señor
     E       B
La majestad, la gracia y poder
     F#        G#m     E
En la luz de tu ser

Interlude:
E   G#m   B   F#
E   G#m   B   F#

Chorus:
   E
Con todo Dios
   G#m
Con todo Dios
      B          F#
Cantare de Tu Gloria
   E
Con todo Dios
   G#m
Con todo Dios
      B          F#
Mi alabanza dare


Bridge:
    E
Mi Corazón
   G#m
Te adora Dios
   B           F#
Por siempre te exaltare
    E
A ti mi Rey
   G#m
Con todo Dios
      B         F# (E)
Mi alabanza dare
Versión 2 - Con Todo (Tablatura para guitarra (TAB))
Hola amigos en Cristo!!
aquí tienen los tabs de la canción "Con todo" muy bella
para deleitarse en la presencia de Dios y adorarle con todo

Guitarra I acústica
Guitarra II eléctrica

Escala Si mayor
Acordes:

    B        F#        G#m        E
e|--2--|  e|--2--|  e|--4--|  e|--9--|
B|--4--|  B|--2--|  B|--4--|  B|--9--|
G|--4--|  G|--3--|  G|--4--|  G|--9--|
D|--4--|  D|--4--|  D|--6--|  D|--9--|
A|--2--|  A|--4--|  A|--6--|  A|--7--|
E|-----|  E|--2--|  E|--4--|  E|-----|

INTRO
Guitarra I
   B                               F#
e|------------------------------------------------------------|
B|-------4---4--------4---4-------4---4-------2---2-----------|
G|-----4---4--------4---4-------4---4-------3---3-------------|
D|---4------------4-----------4-----------4-------------------|
A|-2------------2-----------2---------------------------------|
E|--------------------------------------2---------------------|

  G#m                              E
e|------------------------------------------------------------|
B|-------4---4-------4---4-------4---4--------7---7-----------|
G|-----4---4-------4---4-------4---4--------9---9-------------|
D|---6-----------6-----------6------------9-------------------|
A|--------------------------------------7---------------------|
E|-4-----------4-----------4----------------------------------|


Guitarra II
empieza haciendo esto
con la plumilla o pick como lo quieran llamar
en sentido repetitivo los puntos es para indicarles
y no poner tantos números
Como al minuto 00:16

   B    F#  G#m  E    B   F#  G#m  E   B    F#   G#m   E
e|-11…--12…--11…---7…---9…--11…----12…--9…--11…---7…---9…-----|
B|------------------------------------------------------------|
G|------------------------------------------------------------|



VERSO I

Guitarra I va siguiendo el mismo arpegio
Guitarra II va haciendo lo siguiente:

   B              F#             G#m
   Déjanos ver lo que entristece tu corazón
e|-7……------------9……-------------7……-------------------------|

   E            B                   F#       G#m     E
   La iglesia que deseas tener   Refleja tu Luz
e|-9……------------7……-------------9……-------11……------12……----|

Verso II

   B                F#          G#m
   Rompe Señor   Orgullo y muros en mi interior
e|-7……--------------9……-----------7……-------------------------|

   E              B                 F#        G#m          E
   Mis sueños y coronas te doy   Me rindo a tus pies
e|-9……------------11……-------------9……--------11……-------------|




PRE-CORO

Guitarra II hace lo siguiente y la otra sigue los acordes
Con 5tas u 8tavas
      G#m        E        B        F#
   Tu luz        da           esperanza en la
e|---------------------------------------------------------|
B|--------4---------4---------4--------2-------------------|
G|---------4---------4---------4--------3------------------|
D|-------6---------2---------4--------4--------------------|
A|------------------------2--------------------------------|
E|-----4---------0-----------------2-----------------------|

      G#m       E        B          F#
      Oscuridad           que todos puedan ver
e|---------------------------------------------------------|
B|--------4---------4---------4----------2-----------------|
G|---------4---------4---------4-----------3---------------|
D|-------6---------2---------4----------4------------------|
A|------------------------2--------------------------------|
E|-----4---------0-------------------2---------------------|


E     G#m   F#
Cristo Mi Dios
      C#m    E         F# (E)
Grande y digno de alabar



VERSO III

Guitarra I con acordes
Guitarra II con lo siguiente:
    B          F#        G#        E
e|------|  e|-----|  e|-----|  e|-----|
B|--12--|  B|--7--|  B|--9--|  B|--5--|
G|--11--|  G|--6--|  G|--8--|  G|--4--|
D|--9---|  D|--4--|  D|--6--|  D|--2--|
A|------|  A|-----|  A|-----|  A|-----|
E|------|  E|-----|  E|-----|  E|-----|

B
Eterno Dios
F#      G#m
Glorioso en todo eres Señor
     E       B
La majestad, la gracia y poder
     F#        G#m     E
En la luz de tu ser




PRE-CORO

Volviendo otra vez
Guitarra I con acordes
Guitarra II va haciendo esto:
      G#m          E            B          F#
   Tu luz          da                 esperanza en la
e|---------------------------------------------------------|
B|-----11-12-11-9--11-12-11-----11-12-11-9--11-12-11-------|
G|--------------------------11-----------------------9-----|

      G#m          E           B           F#
      Oscuridad                 que todos puedan ver
e|---------------------------------------------------------|
B|----11-12-11-9--11-12-11-----11-12-11-9--11-12-11--------|
G|-------------------------11-----------------------9------|

E     G#m   F#
Cristo Mi Dios
      C#m    E         F# (E)
Grande y digno de alabar


Un interludio

E   G#m   B   F#
E   G#m   B   F#

Guitarra II va tocando de fondo con volumen bajo
Y después va aumentando la intensidad

         E             G#m
   Con todo Dios, con todo Dios
e|------11-11-11-11-11……------------------------|
         B            F#
   Cantare    de Tu Gloria
e|-------9……---7……----6……-----------------------|

      E             G#m
Con todo Dios, con todo Dios
e|------7……---------9……-------------------------|
          B         F#
   Mi alabanza dare
e|-------…9…---7…---6…--------------------------|

¡je je je! bueno tampoco hay que ser tan perfectos pueden
improvisarle un solo o como quieran en el momento de adoración


    E          G#m
Mi Corazón te adora Dios
      B            F#
Por siempre te exaltare
    E           G#m
A ti mi Rey con todo Dios
      B         F#
Mi alabanza dare

Y bueno, Eso es todo amigos disfrutenlo
y que la pasen super bendecidos por Dios
Saludos desde la iglesia "CASA DEL REY" en Barranquilla
¡los bendigo!
Versión 3 - Con Todo (Tablatura para guitarra (TAB))
espero que les sirva.
esto es el arpeguio que se escucha al principio.

      SI              FA#       SOL#m        MI
E|-------------|------------|-----------|---------------
B|-------------|------------|----4-4----|----7-7--------
G|----8-8------|----3-3-----|---4-4-----|---8-8---------
D|---9-9---x3--|---4-4---x1-|--6------x3|--9------x1----
A|--9----------|--4---------|-----------|---------------
E|-7-----------|-2----------|-4---------|-0-------------


 este es el punteo de fondo que camvia junto con el arpegio
no puse cuantas veces se repite por que son demaciadas xD


      SI              FA#       SOL#m        MI
E|-----7-------|------6------|----11----|-----12--11----------
B|-------------|-------------|----------|---------------------
G|-------------|-------------|----------|---------------------
D|-------------|-------------|----------|---------------------
A|-------------|-------------|----------|---------------------
E|-------------|-------------|----------|---------------------


y en la parte que dice
Tu Luz .... yo ago esto.

E|----------------------------------
B|----4--------7--------------------
G|-----4--------9-8--8s3------------
D|---6--------9---------------------
A|----------------------------------
E|----------------------------------
 y despues en la misma parte pero en la 2da ago esto hasta
 que empiesa el coro
E|------------------
B|---11--12--11--9--
G|------------------  x8
D|------------------
A|------------------
E|------------------

Bueno espero que les ayude en algo que Dios les bendiga. ;)
rodrigo_acroz_12@hotmail.com o al face me agregan cualquier duda
rodrigo galvez pinto xD.

El material contenido en esta página es para exclusivo uso privado y con propósito meramente educativo, se prohibe su reproducción y uso con fines comerciales