Soy Libre

Acordes de la canción 'Soy Libre' de Hillsong United

Versiones de esta canción: Tablatura para guitarra (TAB) - Letra y acordes - Tablatura para bajo (bass tab)

Hola amigos en Cristo aqui les dejo otra para que se diviertan

V= vibrato  b= bend

Escala Re mayor

INTRO

Empieza guitarra I
    F#m                                 D
e|--------------------------------------------------------------------------|
B|--------------------------------------------------------------------------|
G|--------------------------------------------------------------------------|
D|----------------------------------------4---4-6--x-xxx----4---4-6v--------|
A|--------------------------------------5---5------x-xxx--5---5-------------|
E|--2-2-2-2-2-2-2-2-2-2-2-2-2-2-2-2-----------------------------------------|
(x2)

VERSO I:
F#m                                        D
No sé si puedes hoy creer lo que vas a escuchar
G|--------------------------------------------------------------------------|
D|---------------------------------------------4---4-6--x-xxx----4---4-6v---|
A|-------------------------------------------5---5------x-xxx--5---5--------|
E|-2-2-2-2-2-2-2-2-2-2-2-2-2-2-2-2------------------------------------------|

F#m                                        D
Que hay un amor que te da vida y nunca fallara
G|--------------------------------------------------------------------------|
D|---------------------------------------------4---4-6--x-xxx----4---4-6v---|
A|-------------------------------------------5---5------x-xxx--5---5--------|
E|-2-2-2-2-2-2-2-2-2-2-2-2-2-2-2-2------------------------------------------|

F#m                                  D
Yo soy libre, yo soy libre voy a bailar en su amor
G|--------------------------------------------------------------------------|
D|-------------------------------------4-4--6-6--4-4--6-6-------------------|
A|-------------------------------------5-5--5-5--5-5--5-5-------------------|
E|-2-2-2b-2b----2-2-2b-2b---2-2-2-------------------------------------------|

F#m                                  D
Yo soy libre, yo soy libre voy a bailar en su amor
G|--------------------------------------------------------------------------|
D|-------------------------------------4-4--6-6--4-4--6-6-------------------|
A|-------------------------------------5-5--5-5--5-5--5-5-------------------|
E|-2-2-2b-2b----2-2-2b-2b---2-2-2-------------------------------------------|

VERSO II:
Entra Guitarra II y Guitarra I va haciendo lo mismo del verso anterior

Guitarra II
 F#m                                      D
Quien lo diría que Dios a Jesús por mi envió
e|--------------------------------------------------------------------------|
B|-10-10-10-10-10-10-10……-9--9--9--9--9--9……-----7-7-7-7-7-x-xxx-7-7-7-7-7--|
G|-11-11-11-11-11-11-11……-11-11-11-11-11-11……----7-7-7-7-7-x-xxx-7-7-7-7-7--|
D|-11-11-11-11-11-11-11……-11-11-11-11-11-11……----7-7-7-7-7-x-xxx-7-7-7-7-7--|
A|--------------------------------------------------------------------------|

F#m                                       D
Dando su vida en la cruz para mostrar su amor
e|--------------------------------------------------------------------------|
B|-10-10-10-10-10-10-10……-9--9--9--9--9--9……-----7-7-7-7-7-x-xxx-7-7-7-7-7--|
G|-11-11-11-11-11-11-11……-11-11-11-11-11-11……----7-7-7-7-7-x-xxx-7-7-7-7-7--|
D|-11-11-11-11-11-11-11……-11-11-11-11-11-11……----7-7-7-7-7-x-xxx-7-7-7-7-7--|
A|--------------------------------------------------------------------------|

F#m                                  D
Yo soy libre, yo soy libre voy a bailar en su amor
e|--------------------------------------------------------------------------|
B|-10-10-10-10-10-10……-9--9--9--9--9……-----7-7--9-9--7-7--9-9---------------|
G|-11-11-11-11-11-11……-11-11-11-11-11……----7-7--7-7--7-7--7-7---------------|
D|-11-11-11-11-11-11……-11-11-11-11-11……----7-7--7-7--7-7--7-7---------------|
A|--------------------------------------------------------------------------|

F#m                                 D                      E
Yo soy libre, yo soy libre voy a bailar en su amor, su amor es eterno
e|--------------------------------------------------------------------------|
B|-10-10-10-10-10-10……-9--9--9--9--9……-----7--7--7--7--------9-9-9-9-9-9-9--|
G|-11-11-11-11-11-11……-11-11-11-11-11……----7--7--7--7--------9-9-9-9-9-9-9--|
D|-11-11-11-11-11-11……-11-11-11-11-11……----7--7--7--7--------9-9-9-9-9-9-9--|
A|--------------------------------------------------------------------------|

CORO
Guitarra I 5tas u 8tavas
    A        D       F#m
e|-----| e|-----| e|-----|
B|-----| B|-----| B|-----|
G|-----| G|--7--| G|-----|
D|--7--| D|--7--| D|--4--|
A|--7--| A|--5--| A|--4--|
E|--5--| E|-----| E|--2--|

Guitarra II
   A                 D                 F#m
  En ti esta la verdad no lo puedo negar
e|------|        e|------|           e|------|
B|--14--|        B|--15--|           B|--14--|
G|--14--|        G|--14--|           G|--14--|
D|--14--|        D|--12--|           D|--14--|
A|------|        A|------|           A|------|
E|------|        E|------|           E|------|
                      D
  Dios por siempre yo voy a bailar, voy a bailar te alabo
e|------|          e|------|
B|--14--|          B|--15--|
G|--14--|          G|--14--|
D|--14--|          D|--12--|
A|------|          A|------|
E|------|          E|------|

   A                 D                   F#m
   Permanezco en tu luz vida eterna eres Tu
e|------|        e|------|           e|------|
B|--14--|        B|--15--|           B|--14--|
G|--14--|        G|--14--|           G|--14--|
D|--14--|        D|--12--|           D|--14--|
A|------|        A|------|           A|------|
E|------|        E|------|           E|------|

                    D
  En todo tiempo yo voy a bailar voy a bailar te alabo.
e|------|        e|------|
B|--14--|        B|--15--|
G|--14--|        G|--14--|
D|--14--|        D|--12--|
A|------|        A|------|
E|------|        E|------|

   F#m                                 D
e|--------------------------------------------------------------------------|
B|--------------------------------------------------------------------------|
G|--------------------------------------------------------------------------|
D|----------------------------------------4---4-6--x-xxx----4---4-6v--------|
A|--------------------------------------5---5------x-xxx--5---5-------------|
E|--2-2-2-2-2-2-2-2-2-2-2-2-2-2-2-2-----------------------------------------|

VERSO III
F#m                                    D
Ahora es el tiempo de tomar nuestra libertad
F#m                                      D
Para tu gloria nuestras vidas vamos a entregar
F#m                                  D
Yo soy libre, yo soy libre voy a bailar en su amor
F#m                                  D                 E
Yo soy libre, yo soy libre voy a bailar en su amo su amor es eterno

CORO
A                 D                 F#m
En ti esta la verdad no lo puedo negar
                     D
Dios por siempre yo voy a bailar, voy a bailar te alabo
A                 D                    F#m
Permanezco en tu luz vida eterna eres Tu
                   D
En todo tiempo yo voy a bailar voy a bailar te alabo.


Después del coro viene esto; min 02:16
Guitarra I                    Guitarra II
   E      F#m      D         E      F#m      D
e|-----| e|-----| e|-----|   e|-----| e|------| e|-----|
B|-----| B|-----| B|-----|   B|--9--| B|--10--| B|--7--|
G|--9--| G|-----| G|--7--|   G|--9--| G|--11--| G|--7--|
D|--9--| D|--4--| D|--7--|   D|--9--| D|--11--| D|--7--|
A|--7--| A|--4--| A|--5--|   A|-----| A|------| A|-----|
E|-----| E|--2--| E|-----|   E|-----| E|------| E|-----|

       E     F#m       D
Con todo mi ser yo te seguiré, seguiré
    E    F#m       D
Tu voluntad yo te seguiré, seguiré
      E       F#m
Pues tu palabra es verdad
     E      F#m      D
Tu amor me da libertad voy a bailar


PUENTE
Guitarra II
   F#m
e|-9-xx-9-xx-9-xx-9-xx-9-xx-9-xx-9-xx-9---|
B|-10xx-10xx-10xx-10xx-10xx-10xx-10xx-10--|
G|----------------------------------------|
   Bm
e|-10xx-10xx-10xx-10xx-10xx-10xx-10xx-10--|
B|-10xx-10xx-10xx-10xx-10xx-10xx-10xx-10--|
G|----------------------------------------|


   F#m
e|-9-xx-9-xx-9-xx-9-xx-9-xx-9-xx-9-xx-9---|
B|-10xx-10xx-10xx-9-xx-10xx-10xx-10xx-9---|
G|----------------------------------------|
   Bm
e|-10xx-10xx-10xx-10xx-10xx-10xx-10xx-10--|
B|-10xx-10xx-10xx-10xx-10xx-10xx-10xx-10--|
G|----------------------------------------|

F#m                                  Bm7
Yo soy libre, yo soy libre voy a bailar yo soy libre
F#m                                  Bm7
Yo soy libre, yo soy libre voy a bailar yo soy libre

F#m    (Guitarra I riff)             Bm7
Yo soy libre, yo soy libre voy a bailar yo soy libre

F#m                                  D
Yo soy libre, yo soy libre voy a bailar en su amor, su amor es eterno

(Guitarra I riff)
e|-17-17-17-17-17-17-17-17-16-16-16-16-16-16-16-16--------------------------|
B|-------------------------------------------------12-12-12-12-14-14-14-14--|

e|---------------------------|
B|-15-15-15-15-17-17-17-17---| (x2)

CORO
Final
Guitarra I
   F#m
E|-2-2-2-2-2-2-2-2-2-2-2-2-2-2-2-2--------|

Bueno eso es todo que lo disfruten
y ya saben, la gloria para Cristo, los bendigo
saludos desde la iglesia "Casa del Rey" en Barranquilla
efra919@hotmail.com
Versión 2 - Soy Libre (Letra y acordes)
Intro:F#m D F#m D

Verso 1:
F#m                                        D
No se si puedes hoy creer lo que vas a escuchar
F#m                                        D
Que hay un amor que te da vida y nunca fallara
F#m                                  D
Yo soy libre, yo soy libre voy a bailar en su amor
F#m                                  D
Yo soy libre, yo soy libre voy a bailar en su amor

Verso 2:
F#m                                    D
Quien lo diria que Dios a Jesus por mi envio
F#m                                       D
Dando su vida en la cruz para mostrar su amor
F#m                                  D
Yo soy libre, yo soy libre voy a bailar en su amor
F#m                                 D
Yo soy libre,yo soy libre voy a bailar en su amor, su amor es eterno

Coro:
A                 D                 F#m
En ti esta la verdad no lo puedo negar
                     D
Dios por siempre yo voy a bailar, voy a bailar te alabo
A                 D                    F#m
Permanezco en tu luz vida eterna eres Tu
                   D
En todo tiempo yo voy a bailar voy a bailar te alabo.

Intermedio: F#m D

Verso 3:
F#m                                    D
Ahora es el tiempo de tomar nuestra libertad
F#m                                      D
Para tu gloria nuestras vidas vamos a entregar
F#m                                  D
Yo soy libre, yo soy libre voy a bailar en su amor
F#m                                  D
Yo soy libre, yo soy libre voy a bailar en su amo su amor es eterno

Coro-

Puente 1:
       E     F#m       D                   E    F#m
Con todo mi ser yo te seguire, seguire tu voluntad
       D
Yo te seguire, seguire
      E          F#m  D               E F#m  D
Pues tu palabra es verdad tu amor me da libertad voy a bailar

Instumental:F#m Bm7 F#m Bm7

Puente 2:
F#m                                  Bm7
Yo soy libre, yo soy libre voy a bailar yo soy libre
F#m                                  Bm7
Yo soy libre, yo soy libre voy a bailar yo soy libre
F#m                                  Bm7
Yo soy libre, yo soy libre voy a bailar yo soy libre
F#m                                  D
Yo soy libre, yo soy libre voy a bailar en su amor, su amor es eterno

Coro-

Final: F#m
Versión 3 - Soy Libre (Tablatura para bajo (bass tab))
Buenas, en nombre del señor, les quería compartir esta transcripción en bajo
de "Soy Libre" (Break Free) de Hillsong en Bajo ,
es la versión original con todos los arreglos que posee la canción.

Ojala les sirva, Bendiciones.

Al inicio no entra el bajo, entramos recién al Verso 2, pero antes
tenemos una opción de hacer un arreglo a la canción mientras no tocamos
que es una F# pero en la 5ta Cuerda, va mas o menos así...

G|--------------|
D|--------------|
A|--------------|
E|--------------|
B|--7/----------|  "/" = Slide, lo hacemos hacia abajo al primer
traste del diapasón, pero no de golpe, sino que de a poco vamos
bajando).

Lo hacemos en el primer verso de la cancion, 1 vez, en el
3er verso, 1 vez igual, luego viene el precoro y en vez
de tocar una vez el F# lo tocamos 2, algo asì.

G|--------------|
D|--------------|
A|--------------|
E|--------------|
B|--7-7/--------|

Y lo tocamos en el 1er verso del Coro y el 3er verso del coro.

Luego de esto nosotros entramos haciendo lo siguiente...

Verso(2do)
G|---------------------------------------------------------------|
D|--------------4-2~-------4-4-2-2-------------------------------|
A|--------------------------------5-5-5-0-5-5--5-5-5-------------|
E|2/7--2-2-2-2-----2-2-2----------------------------5-5-4-4-----|

G|---------------------------------------------------------------|
D|--------4-2-------4-4-2-2--------------------7-7-6-6-----------|
A|--------------------------5-5-5-0-5-5--5-5-5-------------------|
E|2-2-2-2-----2-2-2----------------------------------------------|

Luego el Pre-Coro

G|---------------------------------------------------------------|
D|----4-2-----4-2-----2------------------------------------------|
A|----------------------5-5--5-5--5-5--5-5~----------------------|
E|2-2-----2-2-----2-2--------------------------------------------|

G|---------------------------------------------------------------|
D|----2-4-----2-4-----2------------------------------------------|
A|----------------------5-5-5-5-5-5-5-5/-------------------------|
E|2-2-----2-2-----2-2--------------------------------------------|

Coro
G|---------------------------------------------------------------------|
D|---------------------------------------------------------------------|
A|0-0-0-0-0-0-0-0-0-0-0-0-0-0-0-0-5-5-5-5-5-5-5-5-5-5-5-5-5-5-7-7-7-7--|
E|---------------------------------------------------------------------|

NOTA: en el coro en vez de hacer "A" al aire como aparece ahí arriba
podemos tocar el 5to traste de "E", suena exactamente
igual, pero depende la comodidad de cada uno.

G|---------------------------------------------------------------------|
D|---------------------------------------------------------------------|
A|---------------------------------5-5-5-5-5-5-5-5-5-5-5-5-5-5-5-5-----|
E|-2-2-2-2-2-2-2-2-2-2-2-2-2-2-2-2-------------------------------------|

Después del primer coro, osea el anterior, la guitarra hace un arreglo
y recién entramos nosotros (cuando dice "Ahora es el tiempo"...)

G|----------------------------------------------------------------|
D|--------------4-2~-------4-4-2-2--------------------------------|
A|--------------------------------5-5-5-0-5-5--5-5-5--------------|
E|2/7--2-2-2-2-----2-2-2----------------------------5-5-4-4------|

G|----------------------------------------------------------------|
D|--------4-2-------4-4-2-2--------------------7-7-6-6------------|
A|--------------------------5-5-5-0-5-5--5-5-5--------------------|
E|2-2-2-2-----2-2-2-----------------------------------------------|

Luego viene el Pre-Coro
G|----------------------------------------------------------------|
D|----2-4-----2-4-----2-------------------------------------------|
A|----------------------5-5--5-5--5-5--5-5~-----------------------|
E|2-2-----2-2-----2-2---------------------------------------------|

G|----------------------------------------------------------------|
D|----2-4-----2-4-----2-------------------------------------------|
A|----------------------5-5-5-5-5-5-5-5/--------------------------|
E|2-2-----2-2-----2-2---------------------------------------------|

Coro:
G|--------------------------------------------------------------------|
D|--------------------------------------------------------------------|
A|0-0-0-0-0-0-0-0-0-0-0-0-0-0-0-0-5-5-5-5-5-5-5-5-5-5-5-5-5-5-7-7-7-7-|
E|--------------------------------------------------------------------|

G|-----------------------------------------------------------------|
D|-----------------------------------------------------------------|
A|---------------------------------5-5-5-5-5-5-5-5-5-5-5-5-5-5-5-5-|
E|-2-2-2-2-2-2-2-2-2-2-2-2-2-2-2-2---------------------------------|


Puente (Hacemos el Puente hasta cuando dice - Voy a bailar -)
G|-------------------------------------------------------------|
D|-------------------------------------------------------------|
A|--7-7-7-7-9-9-9-9-5-5-5-5-5-5-5-5----------------------------|
E|-------------------------------------------------------------|

Después del puente haremos esto:

G|-------------------------------------------------------------|
D|--------4-2-----------4-4-2-2--------------------------------|
A|------------------------------2-2-2-0-2-2--2-2-2-5-5-4-4-----|
E|2-2-2-2---------2-2-2----------------------------------------|

G|-------------------------------------------------------------|
D|--------4-2------------4-4-2-2--------------------7-7-6-6----|
A|------------------------------2-2-2-0-2-2--2-2-2-------------|
E|2-2-2-2---------2-2-2----------------------------------------|

y así hasta el coro

Coro:
G|-------------------------------------------------------------------|
D|-------------------------------------------------------------------|
A|0-0-0-0-0-0-0-0-0-0-0-0-0-0-0-0-5-5-5-5-5-5-5-5-5-5-5-5-5-5-7-7-7-7|
E|-------------------------------------------------------------------|

G|-------------------------------------------------------------------|
D|-------------------------------------------------------------------|
A|---------------------------------5-5-5-5-5-5-5-5-5-5-5-5-5-5-5-5---|
E|-2-2-2-2-2-2-2-2-2-2-2-2-2-2-2-2-----------------------------------|

Después del coro hace esto el Bajo y termina.

Final:
G|-----------------------------|
D|--------4-2-------4-4-2-2~x--|
A|-----------------------------|
E|2-2-2-2-----2-2-2------------|   X = Cortar la nota ( Mute)

NOTA!: La mejor forma de tocar esta canción es escuchándola una
y otra vez, escuchando lo que hace el bajo, porque así aprenderán
cuantas veces tocar las notas, la cantidad que escribí yo es una
aproximación la real, ustedes tiene que tocar la cantidad
dependiendo a su velocidad y el ritmo de la cancion

El material contenido en esta página es para exclusivo uso privado y con propósito meramente educativo, se prohibe su reproducción y uso con fines comerciales