Yahweh

Acordes de la canción 'Yahweh' de Hillsong United

Versiones de esta canción: Tablatura para guitarra (TAB) - Letra y acordes - Letra y acordes

Intro/Verso

------------------------------------
------------------------------11----
-11h13-13--11h13-13--11h13-13-------
------------------------------------
------------------------------------
------------------------------------
------------------------------------

------------------------------------------------------
-----------------rpt----------------------------------
-4-(x12)-3-(x4)--thrice, then---4-(x16)---------------
------------------------------------------------------
------------------------------------------------------
------------------------------------------------------

------------------------------------------------------
-----------------rpt----------------------------------
-4-(x12)-3-(x4)--twice, then----4-(x16)---------------
------------------------------------------------------
------------------------------------------------------
------------------------------------------------------

Instrumental
---------------------------------
-9---12----11----16--12---11-----
---------------------------------
-6----9-----8----13---9----8-----
---------------------------------
---------------------------------
Versión 2 - Yahweh (Letra y acordes)
     E    F#      G#     B
Mi Dios vive por siempre
    E              B    C#
El rey de amor y poder
      E       F#    G#m
Ante el , todos se postran
C#      D#m   E   F#
El es exaltado


      G#m     E       B    C#m
Te adoro yahveh yahveh
      G#         E       F#
por siempre yahveh yahveh

     E    F#      G#     B
Mi Dios mi esperanza
    E              B    C#
Su amor no tiene final
      E       F#    G#m
Al rey, el Dios del cielo
C#      D#m   E   F#
dale la Honra


      G#m     E       B    C#m
Te adoro yahveh yahveh
      G#         E       F#
por siempre yahveh yahveh

    B
El reinara por siempre
    F#
Reinara por siempre
  C#m  G#m   E         F#
Reinara por siempre y siempre
    E    PUENTE; ///E  F# D#  C# B///
MI Dios
Versión 3 - Yahweh (Letra y acordes)
       C       D        Em        G
Mi Dios vive por siempre

      C           G            Am7
Y reina con poder y amor

      C         D      Em
Se postre a Él la tierra

Am7           Bm  C       D
Pues es exaltado.


     Em      C          G         Am
Y miro a Yahweh,   Yahweh

        Em         C         D
Y espero en Yahweh,   Yahweh


Interlude 1 : C D Em (x2)


     C     D     Em    G
Mi Dios es esperanza

     C         G       Am7
Su amor supera todo

     C        D        Em
Exaltad al Dios del cielo

 Am            Bm  C      D
Démosle honor.



       Em      C          G         Am
Y miro a Yahweh,   Yahweh

      Em          C         D
Y espero en Yahweh,   Yahweh


    G
//El reinara por siempre

    D
Reinara por siempre

  Am     Em        C             D
Reinara    por   siempre y siempre//

C
MI Dios

Interlude 2 : C Em D Bm (x4)

El material contenido en esta página es para exclusivo uso privado y con propósito meramente educativo, se prohibe su reproducción y uso con fines comerciales