Tu eres mi respirar

Acordes de la canción 'Tu eres mi respirar' de Hillsong United

Versiones de esta canción: Tablatura para guitarra (TAB) - Letra y acordes - Letra y acordes

Intro Guitarra

e----------------------------------
b----------------------------------
g-----------10----13h15-15---------    x2
d---10h12--------------------13-13-
a----------------------------------
e----------------------------------

Bb            D#
    Eres mi respirar
Bb            D#
    Eres mi respirar


g-------------10-10----------------
d---------12---------------------


Bb         F    Gm    F   D#   Gm     F
    Dios tu presencia, vive    en    mi

g---------------12------------------
d-----12-13-15------15------13-12---


Bb            D#
    Eres mi pan Señor

e---------------------------------
b------13--13h15----16--15--------
g---15----------------------------


Bb            D#
    Eres mi pan Señor

b----------12h13-----------------------
g-------------------15-15---------------
d---12-13---------------------------

Bb         F    Gm    F   D#   Gm     F
    Dios tus palabras so-on  para   mi



Coro:
  Bb  F Gm  F
Y yo-oo-o
          D# Gm  F
Te anhelo Señor

b--------11--13---13s15--15------10h11----10--------
g----12--------------------------------------12-10--

  Bb  F Gm  F
Esto-oo-oy
        D#   Gm   F
Perdido sin ti

e----10h11-10--11---13--------------------------------------
b-------------------------13--11-------------------13-------
g----------------------------------------14h15-14-----------
d-------------------------------------------------------15--



Subes Tono a DO

C            F
    Eres mi respirar
C            F
    Eres mi respirar
C         G    Asus2    G   F   Asus2     G
   Dios tu presencia, vive    en    mi

Coro:
  C  G  Asus2  G
Y yo-oo-o
          F Asus2  G
Te anhelo Señor
  C  G  Asus2  G
Esto-oo-oy
          F Asus2  G
Perdido sin ti
Versión 2 - Tu eres mi respirar (Letra y acordes)
Intro: Bb  Eb9  Bb  Eb9


Bb         Eb9
  Eres mi respirar
Bb         Eb9
  Eres mi respirar
Bb      F     Gm
  Dios tu presencia,
Eb   C7    Fsus F
vive   en  MI


Bb         Eb9
  Eres mi pan Señor
Bb         Eb9
  Eres mi pan Señor
Bb      F     Gm
Dios tus palabras
Eb   C7        F7
so-on  para   mi


   Bb F Gm  F
Y yo  o  o  o
            Eb Gm  F
Te anhelo Seño o   or
  Bb F Gm F
Esto o  o oy
            Eb Gm  F  C
Perdido sin ti  i  i


C          F
  Eres mi respirar
C          F
  Eres mi respirar
C      G     Am
  Dios tu presencia,
F   D7    Gsus G
vive   en  MI


C          F
  Eres mi pan Señor
C          F
  Eres mi pan Señor
C      G     Am
Dios tus palabras
F   D7        G7
so-on  para   mi


   C G Am  F
Y yo o  o  o
             F Am G
Te anhelo Seño o  or
   C G Am G
Esto o  o oy
             F Am  G
Perdido sin ti  i  i


              C G Am  F
Perdido sin ti  i  i  i
             F Am  G
Perdido sin ti  i  i
             C G Am  F
Perdido sin ti  i  i i
             F Am  G
Perdido sin ti  i  i


             C
Te anhelo Señor
Versión 3 - Tu eres mi respirar (Letra y acordes)
A               D                (x2)
/   /   /   / - /   /  /   /

A            D
    Eres mi respirar
A            D
    Eres mi respirar
A         E    F#m    E   D   F#m     E
    Dios tu presencia, vive    en    mi

A           D
    Eres mi pan Señor
A           D
    Eres mi pan Señor
A        E       F#m  E  D   F#m     E
    Dios tus palabras so-on  para   mi


Coro:

  A  E F#m  E
Y yo-oo-o
          D F#m  E
Te anhelo Señor
  A  E  F#m   E
Esto-oo-oy
        D   F#m   E
Perdido sin ti


Final:
               D    F#m   E    (A) <-- Al final
Perdido sin ti

mi correo es eliseo_rocker93@hotmail.com si quieren q les saque o envie
canciones cristianas a ustedes. Dios les bendiga

El material contenido en esta página es para exclusivo uso privado y con propósito meramente educativo, se prohibe su reproducción y uso con fines comerciales