The freedom we know

Acordes de la canción 'The freedom we know' de Hillsong United

Versiones de esta canción: Tablatura para bajo (bass tab) - Tablatura para guitarra (TAB) - Letra y acordes

Intro: (entramos en el acorde F y tocamos:
g|--------------------------------|
d|--------------------------------|
a|----10-8-8-8-7----10-8-8-8-7----|
e|-3s------------3s---------------|

g|--------------------------------|
d|--------------------------------|
a|----10-8-8-8-7----10-7-7-7-8----|
e|-3s------------3s---------------|

Verso:
g|---------------------------------|
d|---------------------------------|
a|----10s------8s----10s------8s---|
e|-3s-----3-3s----3s-----3-3s------|

g|---------------------------------|
d|---------------------------------|
a|----10s------8s----10s------8s---|
e|-3s-----3-3s----3s-----3-3s------|

g|---------------------------------|
d|---------------------------------|
a|---------------------------------|
e|-0--0-0--1--1-1------------------|

Pre-Coro:
D  E  C  C  D E  F C

Solo de bajo: (parecido al intro)
g|---------------------------------|
d|---------------------------------|
a|----10s----8s----10s----8s-------|
e|-3s-----3s----3s-----3s----------|

g|---------------------------------|
d|---------------------------------|
a|----10s----8s----10s----8s-------|
e|-3s-----3s----3s-----3s----------|

Puente:
g|---------------------------------|
d|---------------------------------|
a|---------------------------------|
e|-3-3-3--3-3-3--1-1-1--1-1-1------|

g|---------------------------------|
d|---------------------------------|
a|---------------------------------|
e|-0-0-0--0-0-0--1-1-1--1-1-1------|
Versión 2 - The freedom we know (Tablatura para guitarra (TAB))
Intro:
e|------------|
b|------------|
g|-12--10--9--|
d|------------| (x3)
a|-10--8---7--|
e|------------|

Pre-Coro:
e|------0-------0-------0------2-----|
b|---3-3-----3-3-----3-3-----3--3-3--|
g|--0-0-----0-0-----0-0-----0-0--0---|
d|-4-------2-------------------------|
a|-----------------3-------3---------|
e|-----------------------------------|
D . .Em . .C . .C

e|------0-------0--------------------|
b|---3-3-----3-3-----1--1-----1--1---|
g|--0-0-----0-0-----0--0-0------0-0--|
d|-4-------2-------3--3------2-2-----|
a|--------------------------3--------|
e|-----------------------------------|
D . Em . .F . .C

Coro:
e|--------------------|--------------------|
b|--------------------|--------------------|
g|-0-14-16-0-14-16-04-|16-0-14-16-0-14-16-0|
d|--------------------|--------------------|
a|--------------------|--------------------|
e|--------------------|--------------------|
        G      D        Em
e|----------------------|--------------------|
b|----------------------|--------------------|
g|-19-21-0-19-21-0-14-16|0-14-16-0-14-16-0-14|
d|----------------------|--------------------|
a|----------------------|--------------------|
e|----------------------|--------------------|
   F                      C
Versión 3 - The freedom we know (Letra y acordes)
G
Vamos a celebrar
  F
Tenemos libertad
  Em
Vamos a celebrar
    F                    G F
Tenemos libertad
Vamos a celebrar
Tenemos libertad
Y esta libertad dura para siempre

G
El mundo gira de muchas formas
Pero mi alma segura esta en El
   Em              F            G F
Y cuando el mundo venga contra mi
G
Le seguiré alabando

El nos da eterno amor
Mis sueños y anhelos seguros están
Em          F              G F
En la esperanza de mi salvador
Vamos a alabarle

D         Em
Un gran misterio es
C                         D
Vino a este mundo y mi alma salvo
    Em
Ahora vivo por amor
F
Jesús me salvo

G      D      Em
Mi alma es libre por su amor
  F     C
Vamos vamos
   G      D
Y toda la tierra
Se postrara
   F     C
Vamos solo alabale

G
Ahora todos unidos
Levantemos voces
Em              F             G F
Toda la tierra unida esta
G
Para alabarle
Sinceramente nada que ocultar
Como una ciudad alta vamos a brillar
Em        F
En la luz de tu libertad
TE alabamos

El material contenido en esta página es para exclusivo uso privado y con propósito meramente educativo, se prohibe su reproducción y uso con fines comerciales