Solution

Acordes de la canción 'Solution' de Hillsong United

Versiones de esta canción: Tablatura para guitarra (TAB) - Tablatura para guitarra (TAB)

espero q les guste.......... scuchen bien los tiempos.....
esta es la cancion q esta en B.......


INTRO(x2):

E --------------------------------------------------
A -11-9-11-----------------9-9-9--------------------
D -------------------------------------11-9---------
G ---------9-9-9-8-9-------------8-8-8--------------
B --------------------------------------------------
e --------------------------------------------------

VERSO1 y 2: (Se repite el mismo punteo)


PRECORO(x2):

E -------------------------------
A -------------------------------
D -------------------------------   X3
G -------------------------------
B --12-11-12---------------------
e -----------14-14-14-14-14------

E -------------------------------
A -------------------------------
D -------------------------------
G -------------------------------
B ----------------14-14-11-------
e --12-12-12-11-11---------------


CORO:

E B F#
E B F# C#m    (D#/G)<----- PARA ENTRAR AL INSTRUMENTAL



INSTRUMENTAL:

E ----------------------------------------------
A ----------------------------------------------
D -13-13-13---13--------------------------------
G ---------11---11-13----------13-11-13---------
B ---------------------11-11-11-----------------
e ----------------------------------------------

E ----------------------------------------------
A ----------------------------------------------
D -13-13-13---13--------------------------------
G ---------11---11-13---------------------------
B --------------------14-14-14-12-11-12---------
e ----------------------------------------------

E ----------------------------------------------
A ----------------------------------------------
D -13-13-13---13--------------------------------
G ---------11---11-13----------13-11-13---------
B ---------------------11-11-11-----------------
e ----------------------------------------------


E ----------------------------------------------
A ----------------------------------------------
D ----------------------------------------------
G ----------------------------------------------
B -14-14-14-12-11-12----------------------------
e --------------------14-14-14-12-11-12~~-------


PUENTE(x8):


E ----------------------------------------------
A ----------------------------------------------
D ----------------------------------------------
G ----------------------------------------------
B ---12-9-----12-9----12-9---12-11~--------------
e -11-------12------11------9-------------------
Versión 2 - Solution (Tablatura para guitarra (TAB))
VERSO 1 (It is not a human right......)
E|-----------------------------------------|
B|-----------------------------------------|
G|-------7-7-7-6-7-------6-6-6-------------|
D|-----------------------------9-7---------|
A|-9-7-9-----------7-7-7-------------------|
E|-----------------------------------------|

se repite (x4)


PRE CORO (Hey now fill our hearts...)
E|----------12----------------12-----------|
B|--10-9-10-----------10-9-10--------------|
G|-----------------------------------------|
D|-----------------------------------------|
A|-----------------------------------------|
E|-----------------------------------------|
                                             X2
E|----------12--------10-10-9-9------------|
B|--10-9-10---------------------12-12-9-9--|
G|-----------------------------------------|
D|-----------------------------------------|
A|-----------------------------------------|
E|-----------------------------------------|



E|-----------------------------------------|
B|-----------------------------------------|
G|--------7-7-7-6-7-----------6-6-6-4------|
D|------------------------------------7----|
A|--9-7-9---------------7-5-7--------------|
E|-----------------------------------------| RAPIDO VA
                                             AL VERSO 2
E|-----------------------------------------|
B|-----------------------------------------|
G|--------7-7-7-6-7-------6-6-6-4----------|
D|--4---4-----------4-4-4---------7--------|
A|----7------------------------------------|
E|-----------------------------------------|



VERSO 2 (It is not too far a cry too much...)
E|-----------------------------------------|
B|-----------------------------------------|
G|-----------------------------------------|
D|-----------------------------------------| X2
A|------------------5-X16------------------|
E|--5-X8----0-X8---------------------------|



PRE CORO (Hey now fill our hearts...)
E|----------12----------------12-----------|
B|--10-9-10-----------10-9-10--------------|
G|-----------------------------------------|
D|-----------------------------------------|
A|-----------------------------------------|
E|-----------------------------------------|
                                             x2
E|----------12--------10-10-9-9------------|
B|--10-9-10---------------------12-12-9-9--|
G|-----------------------------------------|
D|-----------------------------------------|
A|-----------------------------------------|
E|-----------------------------------------|



CORO (ooh woh oh oh, God be the Solution)
E|--2-----------------------------2--------|
B|--3---------2-------------------3--------|
G|--2---------2---------1---------4--------| X2
D|------------2---------2---------4--------|
A|----------------------2---------2--------|
E|--------------------------------2--------|
    D         A         E        Bm

esto va antes de empezar el VERSO 3
E|-----------------------------------------|
B|-----------------------------------------|
G|-----------------------------------------|
D|---0-0-0-0-0-0-0-0--NO SE CUANTAS VECES--| "AL GALOPE"
A|----------------------ESCUCHAR-----------| TECNICA UP/DOWN
E|-----------------------------------------|



VERSO 3 (Higher than all circunstance...)
E|-----------------------------------------|
B|-----------------------------------------|
G|-----------------------------------------| X2
D|------------------0-X16------------------| "AL GALOPE"
A|--0-X8-----------------------------------| TECNICA UP/DOWN
E|----------0-X8---------------------------|



PRE CORO (Hey now fill our hearts...)



CORO (ooh woh oh oh, God be the Solution)
E|--2--------------------------2-----------|
B|--3--------2-----------------3-----------|
G|--2--------2--------1--------4-----------| X2
D|-----------2--------2--------4-----------| EN LA SGUNDA VEZ
A|--------------------2--------2-----------| CAMBIA EL Bm x F
E|-----------------------------2-----------|
    D        A        E       Bm


SOLO
E|-----------------------------------------|
B|---------------------9-9-9---------------|
G|-----------9----9-11-------11-9-11-------|
D|--11-11-11---11--------------------------|
A|-----------------------------------------|
E|-----------------------------------------|

E|-----------------------------------------|
B|---------------------12-12-12-10-9-10----|
G|-----------9----9-11---------------------|
D|--11-11-11---11--------------------------|
A|-----------------------------------------|
E|-----------------------------------------|



E|-----------------------------------------|
B|---------------------9-9-9---------------|
G|-----------9----9-11-------11-9-11-------|
D|--11-11-11---11--------------------------|
A|-----------------------------------------|
E|-----------------------------------------|

E|----------------12-12-12-10-9-9-UP1/2--9-|
B|12-12-12-10-9-9--------------------------|
G|-----------------------------------------| UP1/2
D|-----------------------------------------| BEND MEDIO TONO
A|-----------------------------------------|
E|-----------------------------------------|



PUENTE (Only you can mend the broken heart...)
E|--9------10-------9------7---------------|
B|----10-------10-----10-----9-------------|
G|-------9--------9------9-----9-----------| X8
D|-----------------------------------------| Guitarra
A|-----------------------------------------| limpia con delay
E|-----------------------------------------|
      F#m       D      A     E


CORO X2 (IGUAL QUE EN EL SEGUNDO CORO EN
LA ULTIMA VEZ EL "Bm" SE CAMBIA POR "F"
(esta parte va con la guitarra con delay, como campanas)


EL FINAL ES COMO EL SOLO (EN LA GUITARRA LIDER)


Espero que les guste, por ahí le erré en algo
cuando la transcribí, pero a mi me suena muy bien.
Cualquier duda o sugerencia a:  dan_pinz@hotmail.com

El material contenido en esta página es para exclusivo uso privado y con propósito meramente educativo, se prohibe su reproducción y uso con fines comerciales