Por Tí

Acordes de la canción 'Por Tí' de Hillsong United

Versiones de esta canción: Letra y acordes - Tablatura para guitarra (TAB) - Tablatura para guitarra (TAB)

Intro:
e|-------------------------------------------------------
B|-12-12-12-12-12-12-12-12-12-12-12----------------------x3

Es hasta q empieze el CORO:

B
Todo lo doy por ti, por ti
         E       G#m   E
Quiero seguirte solo a ti

VERSO 1
B
En el Padre somos libres
B
La esperanza se encuentra en su nombre
B
Entregamos nuestras vidas
B
En su amor viviremos por siempre

PRE-CORO
E           G#m
En ti la vida está
B
Encuentro libertad
    E      G#m    F#
Mi vida no será igual

CORO
B
Todo lo doy por ti, por ti
          E     G#m    E
Quiero seguirte solo a ti

VERSO 2
B
Con mi vida hoy te sirvo
B
Todo lo que yo soy
B
A ti rindo
B
Mis deseos quiero darte
B
Y por siempre poder reflejarte

PUENTE

C#m         B             F#
Abriste mis ojos, puedo ver
LA venda quitaste
C#m        B              F#
Me diste tu vida y tu verdad
C#m         B           F#
Tu fama queremos proclamar
                E
En ti somos libres
E
En ti somos libres

Un gran saludo a mi iglesia
en La Paz-Bolivia JESUS ES MI SEÑOR
y a mi grupo 3:16 united desde Venezuela
su ex integrante jejejeje
Misael Martinez Pozadas…………

Sugerencias a mi correo:
mmp_908@hotmail.com

TE AMO JESUS!!!!!!!!!!!!!!......
Versión 2 - Por Tí (Tablatura para guitarra (TAB))
Intro Y Versos: B5 (Toda la cancion usa Quintas)
e|-----------------------------------------
B|-12-12-12-12-12-12-12-12-12-12-12--------x3
G|-----------------------------------------

B
Todo lo doy por Ti, por Ti
         E       G#m   E
Quiero seguirte solo a Ti


VERSO 1
B
En el Padre somos libres
B
La Esperanza se encuentra en Su Nombre
B
Entregamos nuestras vidas
B
En Su Amor viviremos por siempre

e|-14--11-----14--11---------------------
B|---14--12-----14--12--12-14s----------x3
G|---------11---------11-----------------

PRE-CORO
E           G#m
En Ti la vida está
B
Encuentro libertad
    E      G#m    F#
Mi vida no será igual


CORO
B
Todo lo doy por ti, por ti
          E     G#m    E
Quiero seguirte solo a ti

G|---------1-------------
D|----------2-2-4--------
A|-2-2-2-2---------------x3
E|------4----------------

e|-----------------------------------------
B|-12-12-12-12-12-12-12-12-12-12-12--------x3
G|-----------------------------------------
VERSO 2
B
Con mi vida hoy Te sirvo
B
Todo lo que yo soy
B
A Ti rindo
B
Mis deseos quiero darte
B
Y por siempre poder reflejarte

ole ole ole ole
e|-----------------------------------------
B|-12-12-12-12-12-12-12-12-12-12-12--------x3
G|-----------------------------------------

PUENTE
C#m E         B             F#
 Abriste mis ojos, puedo ver
F#
La venda quitaste
C#m E       B              F#
 Me diste Tu Vida y Tu Verdad
C#m E       B           F#
Tu fama queremos proclamar
                E
En Ti somos libres
E
En Ti somos libres

CORO
FIN: B
Versión 3 - Por Tí (Tablatura para guitarra (TAB))
Se reordeno tal como esta el tema original, se diferenciaron
las guitarras y se añadieron detalles a las TABS y otras
sugerencias (detalles)

Intro Y Versos: B5 (Toda la cancion usa Quintas)

Guitarra2 en Intro/Coro: Slide hasta B12 y mantener luego G4
Guitarra1 en Intro/Coro: G4 mantener y luego slide hasta B12

e|-----------------------------------------
B|-1s12-12-12-12-12-12-12-12-12-12-12------x3
G|-----------------------------------------

CORO x 2 (Guit2)
B
Todo lo doy por Ti, por Ti
         E       G#m   E
Quiero seguirte solo a Ti

(entra guitarra 1 con bastante Delay y distorsion tocando
las siguientes cuerdas: G4 y e7 las demas muteadas)

VERSO 1
B
En el Padre somos libres
B
La Esperanza se encuentra en Su Nombre
B
Entregamos nuestras vidas
B
En Su Amor viviremos por siempre

Guit1
e|-14--11-----14--11---------------------
B|---14--12-----14--12--12-14----------x3
G|---------11---------11-----------------

PRE-CORO (Guit2)
E           G#m
En Ti la vida está
B
Encuentro libertad
    E      G#m    F#
Mi vida no será igual

CORO x 2 (full ambas guit)
B
Todo lo doy por ti, por ti
          E     G#m    E
Quiero seguirte solo a ti//... Cantaremos

Guit2
G|-------------1-----------------
D|---------------2-2-2-2-2s4-4-4-
A|-2-2-2-2-2--2------------------x2
E|----------4--------------------

Guit1
e|-----------------------------------------
B|-1s12-12-12-12-12-12-12-12-12-12-12--------x3
G|-----------------------------------------

VERSO 2
B
Con mi vida hoy Te sirvo
B
Todo lo que yo soy
B
A Ti rindo
B
Mis deseos quiero darte
B
Y por siempre poder reflejarte

Guit1
e|-14--11-----14--11---------------------
B|---14--12-----14--12--12-14s----------x3
G|---------11---------11-----------------

PRE-CORO (Guit2)
E           G#m
En Ti la vida está
B
Encuentro libertad
    E      G#m    F#
Mi vida no será igual

CORO x 2 (full ambas guit)
B
Todo lo doy por ti, por ti
          E     G#m    E
Quiero seguirte solo a ti//... Cantaremos

Guit2
G|-------------1-----------------
D|---------------2-2-2-2-2s4-4-4-
A|-2-2-2-2-2--2------------------x6
E|----------4--------------------

Guit1
e|-14--11-----14--11---------------------
B|---14--12-----14--12--12-14s----------x3
G|---------11---------11-----------------

PUENTE
C#m          B             F#
 Abriste mis ojos, puedo ver
F#
La venda quitaste
C#m        B              F#
 Me diste Tu Vida y Tu Verdad
C#m        B           F#
Tu fama queremos proclamar
                E
En Ti somos libres
E
En Ti somos libres

CORO x2 (full)
B
Todo lo doy por ti, por ti
          E     G#m    E
Quiero seguirte solo a ti//... Cantaremos

Guit2
G|-------------1-----------------
D|---------------2-2-2-2-2s4-4-4-
A|-2-2-2-2-2--2------------------x2
E|----------4--------------------

FIN: B
FIN: B

Saludos desde Venezuela, Ministerio de Alabanza LBN48, cualquier
duda o sugerencia escribir a rubenmorac@gmail.com, espero sea de
bendicion, este es un gran tema y vale al pena tocarlo bien
detallado y dedicarselo al Rey de Reyes.. Bendiciones

El material contenido en esta página es para exclusivo uso privado y con propósito meramente educativo, se prohibe su reproducción y uso con fines comerciales