No reason to hide

Acordes de la canción 'No reason to hide' de Hillsong United

Versiones de esta canción: Letra y acordes - Tablatura para guitarra (TAB)

VERSO 1:

                Ab
Nada hay que perder
                   Db
Nada hay que esconder
                   Fm
La raspuesta esta en Jesus
                     Db
Es tiempo de mostrar su luz

                Ab
Tu gloria declararé
                  Db
Tu nombre quiero exaltar
               Fm
Para mi lo eres tu
             Db
Eres unico Jesus

CORO:

  Ab
Woah
          Db
vivo estas, soy libre en ti
       Fm
Eres todo Dios
 Ab        Db /// Dbsus4 / Db
Todo para mi


Woah
Por tu amor yo creo en ti
Eres todo Dios
Todo para mi

VERSO 2:

El tiempo no hay que perder
Llego la hora de actuar
Nos espera esta ciudad
Con su luz vamos a brillar

Tu gloria declarare
Tu nombre quiero exaltar
Para mi todo eres Jesus
Eres todo para mi



Ab  Gb
Wo-ah
     Bbm
Wo-ah
     Db
Wo-ah


PUENTE:
Ab
No hay nadie como tú
Gb                      Bbm
nada nos puede separar de ti
    Db
De tu amor

No hay nadie como tú
Nada nos puede separar
De tu amor

TAG:
Ab
Nada puede separarnos
Gb
Nada puede interponerse entre nosotros
Bbm                      Db
Nada puede separarnos ahora

Ps esta es i primera letra q subo espero q les sea de
bendicion a todos y mando un saludo ala iglesia emmanuel
de la zona escolar y a Daniela moreno
Versión 2 - No reason to hide (Tablatura para guitarra (TAB))
Intro & Verso 1:
------------------------------------
------------------------11-13-------
--13---------------13-13------13----
------------------------------------
------------------------------------
------------------------------------

octavas
------------------------
------------------------
--13-12--8--13-12--6----
------------------------
--11-10--6--11-10--4----
------------------------

------------------------
------------------------
--13-12--8--6-----------
------------------------
--11-10--6--4-----------
------------------------

Acordes:
Intro: Bb
Verso 1: Ab Db Fm Db
Ab Db Fm Db

Coro: Power Chords
Ab Db Fm-Ab Db

Pre-Verso 2:
------------------------
------------------------
---13-15-17-------------
--------------2x--------
---11-13-15-------------
------------------------

Verso 2:
-----------------------------
----followed by-"------------
-13--------------13-12-15-17-
-----------------------------
-----------------------------
-----------------------------

------------------------
------------------------
-13-12-15-17-13-12-13"--
------------------------
------------------------
------------------------
r

 octavas
------------------------
------------------------
--13-12--8--13-12--6----
------------------------
--11-10--6--11-10--4----
------------------------

------------------------
------------------------
--13-12--8--6-----------
------------------------
--11-10--6--4-----------
------------------------

Intrumental: I
------------------------------
--------------------13-14-16--
-13-13--17----13-13-----------
-----------3x-----------------
-11-11--15----11-11-----------
------------------------------



----------------------------16----
-----11----13----14----16---18b19-
-13--14b15-15b16-16b17-18b19------
----------------------------------
-11-------------------------------
----------------------------------



Bridge: Octavas
----------------------------
----------------------------
--13--13-11--11-10--10-6----
----------------------------
--11--11-9---9--8---8--4----
----------------------------


----------------------------
----------------------------
--13--15--17--18------------
----------------------------
--11--13--15--16------------
----------------------------

El material contenido en esta página es para exclusivo uso privado y con propósito meramente educativo, se prohibe su reproducción y uso con fines comerciales