Migthy to Save

Acordes de la canción 'Migthy to Save' de Hillsong United

Versiones de esta canción: Letra y acordes - Tablatura para guitarra (TAB)

Bueno aki les dejo esta cancion suena
muy bien espero ke les sirva

D2            A
Todos necesitan
                F#m
Amor que nunca falla
E                   D
Tu gracia y compasión

D             A
Todos necesitan
                F#m
Perdón y esperanza
E                  D  E D E
Y un Dios que salva

Coro
A
Cristo
                E
Puede mover montes
       D             A
Solo dios puede salvar
      F#m         E
Mi dios puede salvar

A
Por siempre
                E
Autor de salvación
           D          A
Jesús la muerte venció
      F#m         E
El la muerte venció


D2               A
Aún en mis temores
               F#m
Se que me aceptas
E              D
Lléname otra vez

D                A
Mi vida te ofrezco
                   F#m
Para seguir tus pasos
E           D
A ti me rindo

D
El la tierra
A            E
 Tu luz brilla
F#m
 Cantamos
D
Por la gloria
A            E
 De tu majestad
F#m
 Jesús
D
En la tierra
A            E
 Tu luz brilla
F#m
 Cantamos
D
Por la gloria
A             E
 De tu majestad


Acordes desconocidos

D2
EADGBe
000230
Versión 2 - Migthy to Save (Tablatura para guitarra (TAB))
Intro/Verse I:
-------9--- se repite asta entro al verso
----12-----
-14--------
-----------
-----------
-----------

Intro/Verse II :
----|-----------------
-10-|-10-|-10-|-9----- sigue el rasgueo.
-9--|-9--|-9--|-9-----
----|-----------------
----|-----------------
----|-----------------


Verse :
-2--4--5--7-----
-3--5--3--5-----
-2--4--2--4-----
----------------
----------------
----------------

Instrumental
-------------------------------------
---14-14--14--14-----14--------------
-14-----14------14-14----14-14-------
-------------------------------------
-------------------------------------
-------------------------------------

-----------------------16-16-16-16---
-------------12-12-12----------------
-14s13-13--13------------------------
-------------------------------------
-------------------------------------
-------------------------------------

-------------------------------------
-14-14-14--12-14--12-14b15r14--14-14-
-------------------------------------
-------------------------------------
-------------------------------------
-------------------------------------

---------------------------16-16-16-16-
-14-----------------12-12--------------
----13-13--13-13-13--------------------
---------------------------------------
---------------------------------------
---------------------------------------

El material contenido en esta página es para exclusivo uso privado y con propósito meramente educativo, se prohibe su reproducción y uso con fines comerciales