I'm not ashamed

Acordes de la canción 'I'm not ashamed' de Hillsong United

Versiones de esta canción: Letra y acordes - Tablatura para bajo (bass tab) - Tablatura para guitarra (TAB) - Tablatura para guitarra (TAB)

Key: G

Intro: Primera parte: C G D (x6, bajo y guitarra)
       Luego: Em G C Am (x4-todos)


Em   G    C      Am
Cuan-do me hallas-te

Em   G  C   Am
Mi ser cambio

Em G C  Am     Em G C Am
Re-di-mido por tu Luz

Em G  C   Am
Ve-a el mundo

Em G  C   Am
Tu Libertad

Em        G      C       Am     Em G C Am
Cam-biaste mis tinie-blas a luz


Pre Coro:

C            G      D    C
Me recibistes, con tu amor

C        G      D
A una, vida eternal


Coro:

G                      D
No me avergüenzo de tu Palabra

  Em              C
Tu Poder y amor, salvo mi alma

 G        D          Em    C
Ahora, mi vida_está en ti


C
vivo porque el vive en mi


Final:

Em      G     C       Am
vivo porque el vive en mi (x3)




*Saludos a mis amigos de la Iglesia Unidos en Amor PR
 y a Mi Iglesia Principe de Paz, Chicago

Que les sea de bendición como a mi,
Dando lo que por gracia recibí
Versión 2 - I'm not ashamed (Tablatura para bajo (bass tab))
les pongo las tabs que para mi son casi las correctas para bajo
coregi algunos errorsillos pero aka esta correctamente


weno comensamos...........
Intro
G----------------------------------|
D-----------------55555555---------|
A-3333333333333333--------55555555-| X6
E----------------------------------|

La mayoría de los versos  son parte 1. La parte 2 se
reproduce una vez en cuando, escuchenlo bien.

Verso
Part 1                 Part 2
G-----------------|    G-----------------|
D-----------------|    D-------------557-|
A-------33--------|    A-------33--------|
E-00-33----55-335-|    E-00-33----55-----|

Para Pre Coro, jugar Intro dos veces

Coro
G--------------------------------------|
D--------------------------------------|
A----------55555555-777777777-33333333-|
E-33333333-----------------------------|

Verso
Pre Coro
Coro

Bridge
G----------------------------------|
D-----5~---------55555555----------|
A-3~------5~--3~----------55555555-|
E----------------------------------|

regreso

a las 3:37, el juego es este ...
G-------------------|
D-------------------|
A-77777777-33333333-|
E-------------------|

Coro
Verso

eso es todo...... espero le aiga ayudado
saludos desde campeche mexico
Versión 3 - I'm not ashamed (Tablatura para guitarra (TAB))
I introduccion:

-3s10-7--7--------------|
-----------8------------|
-------------7----------|
------------------------|
------------------------|
------------------------|

-3s10-7--7--------------|
-----------8-7b8r7------|
------------------------|
------------------------|
------------------------|
------------------------|

-3s10-7--7--------------|
-----------8------------|
-------------7----------|
------------------------|
------------------------|
------------------------|

--3s10-7----------------|
------------8--7--------|
------------7--7--------|
------------------------|
------------------------|
------------------------|

II introduccion:
----------------------------|
-13-12-10-12---13-12-10-5---|
----------------------------|
----------------------------|
----------------------------|
----------------------------|

verso:

-xxxx---------------xxx---------------|
-xxxx---------------xxx---------------|
-xxxx---------------xxx---------------|
-xxxx-22-55/1010/77-xxx-22-55/1010/77-| X2
-xxxx-22-55/1010/77-xxx-22-55/1010/77-|
-xxxx-00-33/8-8-/55-xxx-00-33/8-8-/55-|

pre-coro

------------------------------------|
-13----------12----------15---------|
----12-(x8)------12-(x4)----14-(x2)-|
------------------------------------|
------------------------------------|
------------------------------------|

coro:

-------------------------------------|
-------------------------------------|
----------77777777----------55555555-|
-55555555-77777777-22222222-55555555-|
-55555555-55555555-22222222-33333333-|
-33333333----------00000000----------|

---------------------------------------------|
---------------------------------------------|
----------77777777-1111111111111111-55555555-|
-55555555-77777777-1111111111111111-55555555-|
-55555555-55555555-9-9-9-9-9-9-9-9--33333333-|
-33333333------------------------------------|

----------------------------|
-13-12-10-12---13-12-10-5---|
----------------------------|
----------------------------|
----------------------------|
----------------------------|

verso:

-----------|
-3h5p3h5---|
-----------|
-----------|
-----------|
-----------|

-14-10-12----10-----------------------------|
----------12----10-12----10-----------------|
----------------------12----11b12r11b12r11--|
--------------------------------------------|
--------------------------------------------|
--------------------------------------------|

-14-10-12----10----------------|
----------12----10-12----10----|
----------------------12----11-|
-------------------------------|
-------------------------------|
-------------------------------|

pre-coro

------------------------------------|
-13----------12----------15---------|
----12-(x8)------12-(x4)----14-(x2)-|
------------------------------------|
------------------------------------|
------------------------------------|

coro:

-------------------------------------|
-------------------------------------|
----------77777777----------55555555-|
-55555555-77777777-22222222-55555555-|
-55555555-55555555-22222222-33333333-|
-33333333----------00000000----------|

---------------------------------------------|
---------------------------------------------|
----------77777777-1111111111111111-55555555-|
-55555555-77777777-1111111111111111-55555555-|
-55555555-55555555-9-9-9-9-9-9-9-9--33333333-|
-33333333------------------------------------|(x2)

Instrumental
----------------------------|
-13-12-10-12---13-12-10-5---|
----------------------------|
----------------------------|
----------------------------|
----------------------------|


----------------------------|
-13-12-10-12---13-12-15b17--|
----------------------------|
----------------------------|
----------------------------|
----------------------------|

-12-------------12----------------|
----15p12----------15p12----------|
----------14b16----------14b16-12-|
----------------------------------|
----------------------------------|
----------------------------------|

coro:

-------------------------------------|
-------------------------------------|
----------77777777----------55555555-|
-55555555-77777777-22222222-55555555-|
-55555555-55555555-22222222-33333333-|
-33333333----------00000000----------|

---------------------------------------------|
---------------------------------------------|
----------77777777-1111111111111111-55555555-|
-55555555-77777777-1111111111111111-55555555-|
-55555555-55555555-9-9-9-9-9-9-9-9--33333333-|
-33333333------------------------------------|(x2)

----------------------------|
-13-12-10-12---13-12-10-5---|
----------------------------|
----------------------------|
----------------------------|
----------------------------|(x2)


ZOMOZ HILLSONG UNITED BATERIA XD
       EL ZURDO
Versión 4 - I'm not ashamed (Tablatura para guitarra (TAB))
Introducción:

---------------------------------
---------------------------------
---------------------------------
---------------------------------
----5-5-6-6-3-3---3-3-5-5--------
-3-3-----------3-3-------6-6-3-3-

---------------------------------
---------------------------------
---------------------------------
---------------------------------
-5-5-6-6-3-3-3-3-6-6-------------
--------------------6-6-5-5------

Verso: (Gm)
---------------------------------
---------------------------------
---------------------------------
---------------------------------
-------5-5---------3-3-6-6--------
-3(12x)---6-6-3(8x)-------6-6-5-5-

Pre-Coro:(Eb | Bb | F)
-------------------------------------
------11--11--11--11--11--11-11-10-10
-10s12--12--12--12--10--10---------10
-------------------------------------
-------------------------------------
-------------------------------------

--------------------------------------
------11--11--11--11--11--11--10------
-10s12--12--12--12--10--10----10------
--------------------------------------
--------------------------------------
--------------------------------------

Coro:  (Bb | Ab | Gm | Eb)
--------------------------
--------------------------
----------8-------8-------
-8-s7s6-5-8-8-6-5-8-------
-8-s7s6-5-6-8-6-5-6-------
-6-s5s4-3---6-4-3---------

Instrumental: (Gm | Eb | F | Dm | Eb | Gm | F/A | F#dim  | Bb)


--------------6------------------
--------------8b9b10-------------
---------------------------------
---------------------------------
------10(12x)--------------------
-3-3-3---------------------------

---------------------------------
---11----------------------------
-10--10--------------------------
-------12-10---10h12p10--10-10h12-
-------------12------------------
---------------------------------

---------------------------------
---------------------------------
---------------------12-12-10-10-
-10--10---8-10-8--8-8------------
--------12-----------------------
---------------------------------

---------------------------------
-----------------11-11-11-11-11--
------12-12-10-10------10-10-10--
-12-12---------------------------
---------------------------------
---------------------------------

---------------------------------
-11-13-13-11-11-13b15---r13--10--
---------------------------------
---------------------------------
---------------------------------
---------------------------------

El material contenido en esta página es para exclusivo uso privado y con propósito meramente educativo, se prohibe su reproducción y uso con fines comerciales