His Love

Acordes de la canción 'His Love' de Hillsong United

Versiones de esta canción: Letra y acordes - Tablatura para bajo (bass tab)

Intro: F#m  A  Emaj9

Emaj9
Tu luz esta en mi
Amaj9
Brilla sobre mi
              Emaj9
Ya no hay tinieblas

Emaj9
El cielo sobre mi
Amaj9
Rebosa sobre mi
           Emaj9
Me inunda con amor

PRE-CORO
F#m7         B6
Rebosando estoy
F#m7         B6
Rebosando estoy

CORO
E       F#m7     A
Alabale de corazón
B6    E
Alabale
        F#m7       A
Por siempre es fiel
 B      C#m7       B
Me cubres con su amor
         A
Con su amor
 B   C#m7  B
Me cubres con su amor
          A
Con su amor

C#m9  G#m9

PUENTE
E       F#m7
Tu luz brillo en mi
             G#m7
Cambio la oscuridad
                    A
No habrá tinieblas nunca mas

Emaj9      F#m7
Ahora puedo ver
                G#m7
Un dia nuevo despertar
                    A
La luz de un nuevo amanecer
Versión 2 - His Love (Tablatura para bajo (bass tab))
INTRO:

|--------------------------------------------------------------|
|----------------------------4-4-4-4--2---7-7-7-7-6—2-4--------|
|--------------------4-4-4-4------------4---------------4-2----|
|---2-2-2-2--5-5-5-5-------------------------------------------|


|--------------------------------------------------------------|
|--------------------------------------------------------------|
|-7-7-7-7-7-7-7--7--7-7-7-7-7-7-7--7---7-7-7-7-7-7---7---7-----|
|--------------7--7---------------7--7-------------7---7-------|

VERSO:

|--------------------------------------------------------------|
|--------------------------------------------------------------|
|--7-7-7-7-7-7---7---7--7-7-7-7-7-7--7---7---------------------|
|--------------7---7---------------7---7---7-------------------|



|--------------------------------------------------------------|
|--------------------------------------------------------------|
|--------------------------------------------------------------|
|-5-5-5-5/7--5-0-5-7-5-5-5-5-5-5-0-5-7-0-5-7-5-5---------------|



|--------------------------------------------------------------|
|--------------------------------------------------------------|
|--7-7-7-7-7-7---7---7--7-7-7-7-7-7--7---7---------------------|
|--------------7---7---------------7---7---7-------------------|


|--------------------------------------------------------------|
|--------------------------------------------------------------|
|--------------------------------------------------------------|
|-5-5-5-5/7--5-0-5-7-5-5-5-5-5-5-0-5-7-0-5-7-5-5---------------|


PRE-CORO:

|--------------------------------------------------------------|
|----------------------------------2---------------------------|
|----------2---------2-2-2-2-2-2-4---2-2-2-2-------------------|
|--2-2-2-4---2-2-2-4-------------------------------------------|


|--------------------------------------------------------------|
|----------------------------------2---------------------------|
|----------2---------2-2-2-2-2-2-4---2-2-2-2-2-2---------------|
|--2-2-2-4---2-2-2-4-------------------------------------------|


CHORUS:

|--------------------------------------------------------------|
|--------------------------------------------------------------|
|--------------------------------------------------------------|
|-0-0-0-0-0-0-0-0-0-0-2-2-2-2-2-5-5-5-5-5-7-7-7-7-7-7----------|


|--------------------------------------------------------------|
|---------------------------------------2----------------------|
|-----------------------------------2-4--4-4-4-4-4-2-2-2-2-2-2-|
|-0-0-0-0-2-2-2-2-5-5-5-5-7-7-7-7-7----------------------------|


|--------------------------------------------------------------|
|---------------------2----------------------------------------|
|-0-0-0-0-2-2-2-2-2-4---4-4-4-4--4--2-2-2-2-2-2-/9-------------|
|--------------------------------------------------------------|



INSTRUMENTAL:

|--------------------------------------------------------------|
|--------------------------------------7-7-7-6-2---------------|
|-------------2-2-2-2-2-2-4-4-4-4-4-4--------------------------|
|-4-4-4-4-4-4-----------------------------------4-4-4-4-4-4-4-4|

|--------------------------------------------------------------|
|--7-7-7-7-6-6-6-6---------------------------------------------|
|-------------------7-7/9-9-9-4-2------------------------------|
|----------------------------------0---------------------------|

BRIDGE:

      E                        F#m7      G#m7
|--------------------------------------------------------------|
|--------------------------------------------------------------|
|--------------------------------------------------------------|
|--------------------------------------------------------------|


                     A            E              F#m7
|--------------------------------------------------------------|
|--------------------------------------------------------------|
|--------------------------------------------------------------|
|---------------------------------0-0-0-0-0-0-0-2-2-2-2-2-2-2—-|
                                  Ahora     puedo   ver ........

   G#m7                             A
|--------------------------------------------------------------|
|--------------------------------------------------------------|
|--------------------------------------------------------------|
|-------4-4-4-4-4-4-4-4-4/5-5-5-5-5-5-5-5-5-5-5----------------|


CHORUS:
 |--------------------------------------------------------------|
|--------------------------------------------------------------|
|--------------------------------------------------------------|
|-0-0-0-0-0-0-0-0-0-0-2-2-2-2-2-5-5-5-5-5-7-7-7-7-7-7----------|


 |--------------------------------------------------------------|
|---------------------------------------2----------------------|
|-----------------------------------2-4--4-4-4-4-4-2-2-2-2-2-2-|
|-0-0-0-0-2-2-2-2-5-5-5-5-7-7-7-7-7----------------------------|


|--------------------------------------------------------------|
|---------------------2----------------------------------------|
|-0-0-0-0-2-2-2-2-2-4---4-4-4-4--4--2-2-2-2-2-2-0-0-0-0-2-2-2-2|
|--------------------------------------------------------------|


|--------------------------------------------------------------|
|--------------------------------------------------------------|
|--------------------------------------------------------------|
|-0-0-0-0-0-0-0-0-0-0-2-2-2-2-2-5-5-5-5-5-7-7-7-7-7-7----------|

|--------------------------------------------------------------|
|---------------------------------------2----------------------|
|-----------------------------------2-4--4-4-4-4-4-2-2-2-2-2-2-|
|-0-0-0-0-2-2-2-2-5-5-5-5-7-7-7-7-7----------------------------|

|--------------------------------------------------------------|
|---------------------2----------------------------------------|
|-0-0-0-0-2-2-2-2-2-4---4-4-4-4--4--2-2-2-2-2-2-0-0-0-0-2-2-2-2|
|--------------------------------------------------------------|

OUTRO:
     C#m         B      A         B
|--------------------------------------------------------------|
|--------------------------------------------------------------|
|---4-4-4-4-4-2-2-2-2-0-0-0-0-0-2-2-2-2-2----------------------|
|--------------------------------------------------------------|


     C#m         B      A         B (.)
|--------------------------------------------------------------|
|--------------------------------------------------------------|
|---4-4-4-4-4-2-2-2-2-0-0-0-0-0-2-2-2-2-2----------------------|
|--------------------------------------------------------------|



HIS LOVE BY IREPAN,,,,,,,

El material contenido en esta página es para exclusivo uso privado y con propósito meramente educativo, se prohibe su reproducción y uso con fines comerciales