God is able

Acordes de la canción 'God is able' de Hillsong United

Versiones de esta canción: Tablatura para guitarra (TAB) - Letra y acordes

Acordes y arreglos originales.
Intro Y Versos: (B) B F# G#m E

e|--------------------------12-11-----------------------------
B|-12-12-12-14-12-14-12-(14)------14-14-12-14-12-(14)------12-
G|------------------(11)-----------------------------11-13----x4

Verso1
     B            F#
 Poderoso, Nunca fallarás
G#m           E
Omnipotente Dios
            B                     F#
 Más de lo que busqué, más de lo que pedí
G#m         E       F#
Grande es nuestro Dios

      (Grande es nuestro Dios)
e|------------------------
B|-------12----9------11--
G|-(9)-11---11---11-13----

Coro1
e|-----------------------------
B|---12-14-12-11------12-14-12-
G|-11-------------11---------9-x2
        B                  F#
El triunfó a la muerte venció
       G#m     E
Vivo está es Poderoso
      B            F#
En Jesús soy vencedor
         G#m     F#  E
Nuestro Dios es Poderoso

   B             F#               G#m                    E
e|--------------------------12-11----------------------------
B|-12-12-12-14-12-14-12-(14)------14-12-14-12-(14)-------12--
G|-------------------------------------------------11-13----x4

Verso2
e|---------------------6------------------
B|---------7------------7--------9--------
G|----------8---------------------8--14---
D|-8-(9)-8-----8-(9)-8----8-(9)-8----11---
          B           F#
 Dios me guía, Él conmigo está
G#m          E
Un camino hará
            B                     F#
 Más de lo que soñé, más de lo que esperé
G#m         E       F#
Grande es nuestro Dios


Coro2
e|-----------------------------------11-------
B|------12-12-13-12-12-12----------12---14-14-
G|-11-11-------------------x3-----------------
D|----------------------------14-14-----------x2
        B                  F#
El triunfó a la muerte venció
       G#m     E
Vivo está es Poderoso
     B/D#          F#
En Jesús soy vencedor
         G#m     F#  E
Nuestro Dios es Poderoso


Puente
  B/D#          F#          G#m      F#      E
e|-14-14-14-12-12-11-9-6-7--14-14-14-11-11-9-12-12
B|------------------------------------------------
G|-11-11-11-9--9--8--6-3-4--11-11-11--9-9--7--9-9-
         B/D#          F#
 Dios me cuida, Él conmigo está
           G#m   F#       E
El nunca me deja, El nunca me deja
         B/D#      F#
 Dios me ama con eterno Amor
           G#m    F#       E
El nunca me falla, El nunca me falla


Coro
e|-----------------------------------11-------
B|------12-12-13-12-12-12----------12---14-14-
G|-11-11-------------------x3-----------------
D|----------------------------14-14-----------x2
        B                  F#
El triunfó a la muerte venció
       G#m     E
Vivo está es Poderoso
     B/D#          F#
En Jesús soy vencedor
         G#m     F#  E
/Nuestro Dios es Poderoso/

Fin: B
Versión 2 - God is able (Letra y acordes)
Intro: B-Badd9-B-Bsus4-Badd9-B ó B-F#-G#m7-E

Verso 1:
 E        B
   Poderoso
          F#
   Nunca fallará
   G#m7          E
   Omnipotente Dios
              B
   Más de lo que busqué
              F#
   Más de lo que pedí
    G#m7      E        F#
   Grande es nuestro Dios


Coro:
           B
   Él triunfó
                    F#
   A LA muerte venció
         G#m7
   Vivo está
           E
   Es poderoso
        Eadd9
   En Jesús
            F#
   Soy vencedor
            G#m7
   Nuestro Dios
       F#   E
   Es poderoso


 B-F#-G#m7-E


Verso 2:
           B
   Dios me guía
          F#
   Él conmigo está
   G#m         E
   Un camino hará
              B
   Más de lo que soñé
             F#
   Más de lo que esperé
   G#m7     Eadd9     F#
   Grande es nuestro Dios


Coro:
           B
   Él triunfó
                    F#
   A LA muerte venció
         G#m7
   Vivo está
           E
   Es poderoso
        Eadd9
   En Jesús
            F#
   Soy vencedor
            G#m7
   Nuestro Dios
       F#   E
   Es poderoso


 B-F#-G#m7-B-F#-E

Puente:
           B
   Dios me cuida
         F#
   Él conmigo está
            B  G#m7  F#
   Él nunca me de___ja
                E   Eadd9
   Él nunca me de___ja
   B
   Dios me ama
         F#
   Con eterno amor
                G#m
   Él nunca me falla
 F#             E
   Él nunca me falla



Chorus:
           B
// Él triunfó
                    F#
   A LA muerte venció
         G#m7
   Vivo está
           E
   Es poderoso
        B
   En Jesús
            F#
   Soy vencedor
   F#sus4   G#m
// Nuestro Dios
   G#m F#  E
   Es poderoso ////

El material contenido en esta página es para exclusivo uso privado y con propósito meramente educativo, se prohibe su reproducción y uso con fines comerciales