Cambiaré mi Tristeza

Acordes de la canción 'Cambiaré mi Tristeza' de Hillsong United

Versiones de esta canción: Letra y acordes - Tablatura para bajo (bass tab)

(CORO)

A      D      F#m  E
Cambiare mi tristeza,
A      D      F#m  E
Cambiare mi vergüenza
A     D       F#m            E        A     D    F#m  E
Los entregare,  por el gozo de Dios
A      D   F#m E    A   D   F#m E
Cambiare mi dolor   y mi enfermedad
A      D      F#m  E  A D  F#m  E
Los entregare por el gozo de dios
A      D      F#m       E
//SI Señor   SI, SI Señor//

Estrofa
A             D            F#m       E
Estando atribulado, pero nunca derrotado
A      D      F#m  E
Y perseguido este
A                     D
Maldiciones no me afectan
        F#m        E
Pues yo se a quien voy
       A           D
En su gozo fuerte soy

E
Aunque triste en al noche yo este
       G                          A
El gozo viene en la mañana

Coro
    A        D      -  F#m     E      -
G-----------------------------------------------------------------------
D------------4---4--x--7--7----6---6--x----------------------------------
A----4--4----5---5--x--9--9----7---7--x----------------------------------
E----5--5----------------------------------------------------------------
ESTAS NOTAS SON PARA LA GUITARRA, EL BAJO SOLO VA CON LAS ULTIMAS
DOS CUERDAS.
Versión 2 - Cambiaré mi Tristeza (Tablatura para bajo (bass tab))
El intro de esta cancion empieza con el bajo. El intro va haci:

---6-6------11--11-----14-14-13-----6-6----11-11----14-14--16
-------------------------------------------------------------
-------------------------------------------------------------
---5-5------10--10-----14-14-12-----5-5----10-10----14-14--15

Las notas del estrofa son:

A-----D-----F#m-----E


Las notas del puente (bridge) son:

////A-----D-----F#m-----E////


E-----G-----D

Las notas del coro son:

A-----D-----F#m-----E

El material contenido en esta página es para exclusivo uso privado y con propósito meramente educativo, se prohibe su reproducción y uso con fines comerciales