Ojalá

Tabs, letra y acordes de 'Ojalá' por Silvio Rodriguez

Versiones disponibles: Tablatura para guitarra (TAB) - Tablatura para guitarra (TAB) - Tablatura para guitarra (TAB) - Tablatura para guitarra (TAB) - Tablatura para guitarra (TAB) - Letra y acordes - Letra y acordes - Letra y acordes

**********************************
por:  Roberto S. Zárate Hernández
**********************************

Aqui esta esta versión, no le falta ni le sobra, y porfavor agradecería 
sus críticas, y/o sus opiniones, ya que es mi primera canción.

Estos son los riff.

Riff1
1|--------10------|--------9-------|--------8-------|--------7-------|E
2|------10----10--|------10----10--|------10----10--|------10----10--|B
3|----10----10----|----10----10----|----10----10----|----10----10----|G
4|--0-------------|--0-------------|--0-------------|--0-------------|d
5|----------------|----------------|----------------|----------------|a
6|----------------|----------------|----------------|----------------|e

Riff2
1|--------8-------|--------8-------|--------8-------|--------8-------|E
2|------8-----8---|------8-----8---|------8-----8---|------8-----8---|B
3|----9-----9-----|----9-----9-----|----9-----9-----|----9-----9-----|G
4|----------------|--10------------|----------------|--10------------|d
5|----------------|----------------|----------------|----------------|a
6|--8-------------|----------------|--8-------------|----------------|e

Riff3
1|--------7-------|--------7-------|--------5-------|--------5-------|--------5-------|--------4-------|E
2|------8-----8---|------8-----8---|------5-----5---|------5-----5---|------6-----6---|------5-----5---|B
3|----9-----9-----|----9-----9-----|----6-----6-----|----6-----6-----|----7-----7-----|----6-----6-----|G
4|----------------|--9-------------|----------------|--7-------------|----------------|----------------|d
5|--7-------------|----------------|----------------|----------------|--5-------------|--4-------------|a
6|----------------|----------------|--5-------------|----------------|----------------|----------------|e

Riff4
1|--------2-------|--------2-------|--------5-------|--------5-------|--------3-------|--------2-------|E
2|------3-----3---|------3-----3---|------5-----5---|------5-----5---|------3-----3---|------2-----2---|B
3|----4-----4-----|----4-----4-----|----6-----6-----|----6-----6-----|----4-----4-----|----3-----3-----|G
4|----------------|----------------|----------------|--7-------------|----------------|----------------|d
5|--2-------------|--0-------------|----------------|----------------|----------------|----------------|a
6|----------------|----------------|--5-------------|----------------|--3-------------|--2-------------|e

Riff5
1|--------2-------|--------2-------|--------0-------|------0-----0---|E
2|------3-----3---|------3-----3---|------0-----0---|----0-----0-----|B
3|----4-----4-----|----4-----4-----|----1-----1-----|--2-----1-------|G
4|----------------|----------------|----------------|----------------|d
5|--2-------------|--0-------------|----------------|----------------|a
6|----------------|----------------|--0-------------|----------------|e

1|--------1-------|--------1-------|--------0-------|--------1-------|E
2|------3-----3---|------3-----3---|------3-----3---|------3-----3---|B
3|----2-----2-----|----2-----2-----|----0-----0-----|----2-----2-----|G
4|--0-------------|----------------|----------------|----------------|d
5|----------------|--3-------------|--1-------------|--3-------------|a
6|----------------|----------------|----------------|----------------|e

Riff6

1|--------8-------|--------8-------|--------3-------|E
2|------9-----9---|------9-----9---|------3-----3---|B
3|----10----10----|----10----10----|----4-----4-----|G
4|----------------|--10------------|----------------|d
5|--8-------------|----------------|----------------|a
6|----------------|----------------|--3-------------|e

Intro 2 veces R1

    R1                                             R1  
      Ojalá que las hojas no te toquen el cuerpo cuando caigan,
    R2                                   R1   
      para que no las puedas convertir en cristal.
    R3                                                          R4
      Ojalá que la lluvia deje de ser milagro que baja por tu cuerpo.
                                      R5
      Ojalá que la luna pueda salir sin ti.
                                           R1
      Ojalá que la tierra no te bese los pasos.

    R1                              R2
      Ojalá se te acabe la mirada constante, 

      la palabra precisa, la sonrisa perfecta.
    R6                                  C
      Ojalá pase algo que te borre de pronto,
            E        Am       C        F 
      una luz cegadora, un disparo de nieve.
                    G                      C
      Ojalá por lo menos que me lleve la muerte,
            E        Am       C        F           
      para no verte tanto, para no verte siempre.
                     R1                     R2
      En todos los segundos, en todas las visiones.
    R3                                   R1            R1
      Ojalá que no pueda tocarte ni en canciones.

    R1                                        R1  
      Ojalá que la aurora, no de gritos que caigan en mi espalda.
    R2                                   R1   
      Ojalá que tu nombre, se le olvide a esa voz.
    R3                                                   R4
      Ojalá las paredes no retengan tu ruido de camino cansado.
                                   R5
      Ojalá que el deseo se vaya tras de ti,
                                          R1
      a tu viejo gobierno de difuntos y flores.

    R1                              R2      
      Ojalá se te acabe la mirada constante, 

      la palabra precisa, la sonrisa perfecta.
    R6                                  C
      Ojalá pase algo que te borre de pronto,
            E        Am       C        F 
      una luz cegadora, un disparo de nieve.
                    G                      C
      Ojalá por lo menos que me lleve la muerte,
            E        Am       C        F 
      para no verte tanto, para no verte siempre.
                    G                      C
      En todos los segundos, en todas las visiones.
            E        Am       C        F 
      Ojalá que no pueda tocarte ni en canciones.

                    G                      C
      Ojalá pase algo que te borre de pronto,
            E        Am       C        F       
      una luz cegadora, un disparo de nieve.
                    G                      C
      Ojalá por lo menos que me lleve la muerte,
            E        Am       C        F 
      para no verte tanto, para no verte siempre.
                     R1                     R2
      En todos los segundos, en todas las visiones.
    R3                                   R4              R1   R2
      Ojalá que no pueda tocarte ni en canciones.


*************************************************
Trancripcion por Roberto S. Zárate Hernández
E-mail; rszh@tutopia.com
ICQ # 60418708

Le dedico la transcripción a mis hermanos, mis amigos de la FESC, a ustedes que han 
estado siempre conmigo (CAA, JMMG)y en especial a tí, que me inspiraste para la 
realización de este proyecto, EDD. 
Para quien no la haya escuchado, me la puede pedir en formato mp3, (exclusivo FESC)
Versión 2 - Ojalá (Tablatura para guitarra (TAB))
hola soy yo de nuevo, esta es mi tercer tab asi que espero que les agrade 
MI trabajo.
revise los otros tabs y les faltan algunas cosas, que ya vienen incluidas aqui
asi que podria decir que el margen de error es de 1% o menos.
esta va dedicada para mi cuñado Rodrigo Yael Duran Sesin, que me la pidió
desde Ensenada , B.C. asi que va por ti cuñao. no mas que devuelveme el favor 
cuidando a mi hermana jaja, bueno ahi les va:



   D                  Dmaj7             D7               D6       
E ------------------l------------------l-----------------l-----------------l
A ------------------l------------------l-----------------l-----------------l
D -0----------------l-0----------------l-0---------------l-0---------------l
G ---10-------10----l---10-------10----l---10------10----l---10------10----l
B ------10-------10-l------10-------10-l------10------10-l------10------10-l
e ---------10-------l---------9--------l---------8-------l---------7-------l

   D                  Dmaj7             D7               D6       
E ------------------l------------------l-----------------l-----------------l
A ------------------l------------------l-----------------l-----------------l
D -0----------------l-0----------------l-0---------------l-0---------------l
G ---10-------10----l---10-------10----l---10------10----l---10------10----l
B ------10-------10-l------10-------10-l------10------10-l------10------10-l
e ---------10-------l---------9--------l---------8-------l---------7-------l

   D                  Dmaj7             D7               D6       
E ------------------l------------------l-----------------l-----------------l
A ------------------l------------------l-----------------l-----------------l
D -0----------------l-0----------------l-0---------------l-0---------------l
G ---10-------10----l---10-------10----l---10------10----l---10------10----l
B ------10-------10-l------10-------10-l------10------10-l------10------10-l
e ---------10-------l---------9--------l---------8-------l---------7-------l
              Ojala   que   las   hojas   no   te   toquen   el   cuerpo 

   D                  Dmaj7             D7               D6       
E ------------------l------------------l-----------------l-----------------l
A ------------------l------------------l-----------------l-----------------l
D -0----------------l-0----------------l-0---------------l-0---------------l
G ---10-------10----l---10-------10----l---10------10----l---10------10----l
B ------10-------10-l------10-------10-l------10------10-l------10------10-l
e ---------10-------l---------9--------l---------8-------l---------7-------l
    cuando caigan

   C             C             C             C       
E -8-----------l---------------l-8-----------l--------------l
A -------------l---------------l-------------l--------------l
D -------------l-10------------l-------------l-10-----------l
G ---9-----9---l----9-----9----l---9-----9---l----9-----9---l
B -----8-----8-l------8-----8--l-----8-----8-l------8-----8-l
e -------8-----l--------8------l-------8-----l--------8-----l
            para  que no las puedas        convertir 
 
  D                  Dmaj7             D7               D6       
E ------------------l------------------l-----------------l-----------------l
A ------------------l------------------l-----------------l-----------------l
D -0----------------l-0----------------l-0---------------l-0---------------l
G ---10-------10----l---10-------10----l---10------10----l---10------10----l
B ------10-------10-l------10-------10-l------10------10-l------10------10-l
e ---------10-------l---------9--------l---------8-------l---------7-------l
     en crista-a-al

   Em/B         Em/B             A             A       
E -------------l-------------l-5-----------l-------------l
A -7-----------l-------------l-------------l-------------l
D -------------l-9-----------l-------------l-7-----------l
G ---9-----9---l---9-----9---l---6-----6---l---6-----6---l
B -----8-----8-l-----8-----8-l-----5-----5-l-----5-----5-l
e -------7-----l-------7-----l-------5-----l-------5-----l
             ojala   que  la  lluvia-a-a     deje de ser el

   Dm                C#m           Bm            Bm/A
E -------------l-------------l-------------l-------------l
A -5-----------l-4-----------l-2-----------l-0-----------l
D -------------l-------------l-------------l-------------l
G ---7-----7---l---6-----6---l---4-----4---l---4-----4---l
B -----6-----6-l-----5-----5-l-----3-----3-l-----3-----3-l
e -------5-----l-------4-----l-------2-----l-------2-----l
    milagro  que baja por  tu  cuerpo

   A             A             G             F#       
E -5-----------l-------------l-3-----------l-2-----------l
A -------------l-------------l-------------l-------------l
D -------------l-7-----------l-------------l-------------l
G ---6-----6---l---6-----6---l---4-----4---l---3-----3---l
B -----5-----5-l-----5-----5-l-----3-----3-l-----2-----2-l
e -------5-----l-------5-----l-------2-----l-------2-----l
              ojala  que  la  luna         pueda salir 
B  Bm               Bm/A              E             Esus4  E  
E -------------l-------------l-0-----------l-------------l
A -2-----------l-0-----------l-------------l-------------l
D -------------l-------------l-------------l-------------l
G ---4-----4---l---4-----4---l---1-----1---l-2-----1-----l
B -----3-----3-l-----3-----3-l-----0-----0-l---0-----0---l
e -------2-----l-------2-----l-------0-----l-----0-----0-l
   sin ti-i-i

B  Dm               D2/C               D2/A#         A       
E -------------l-------------l-------------l-------------l
A -------------l-3-----------l-1-----------l-0-----------l
D -0-----------l-------------l-------------l-------------l
G ---2-----2---l---2-----2---l---2-----2---l---2-----2---l
B -----3-----3-l-----3-----3-l-----3-----3-l-----2-----2-l
e -------1-----l-------0-----l-------0-----l-------0-----l     
           ojala que  la  tierra  no  te   bese  los pa-

  D                  Dmaj7             D7               D6       
E ------------------l------------------l-----------------l-----------------l
A ------------------l------------------l-----------------l-----------------l
D -0----------------l-0----------------l-0---------------l-0---------------l
G ---10-------10----l---10-------10----l---10------10----l---10------10----l
B ------10-------10-l------10-------10-l------10------10-l------10------10-l
e ---------10-------l---------9--------l---------8-------l---------7-------l
   -sos
  D                  Dmaj7             D7               D6       
E ------------------l------------------l-----------------l-----------------l
A ------------------l------------------l-----------------l-----------------l
D -0----------------l-0----------------l-0---------------l-0---------------l
G ---10-------10----l---10-------10----l---10------10----l---10------10----l
B ------10-------10-l------10-------10-l------10------10-l------10------10-l
e ---------10-------l---------9--------l---------8-------l---------7-------l
                 ojala   se    te     acabe    la       mirada     constante

   C             C             C             C             F                  F
E -8-----------l---------------l-8-----------l--------------l---------------l-8--l
A -------------l---------------l-------------l--------------l-8-------------l-8--l
D -------------l-10------------l-------------l-10-----------l---------------l-10-l   
G ---9-----9---l----9-----9----l---9-----9---l----9-----9---l---10-----10---l-10-lrasgueos
B -----8-----8-l------8-----8--l-----8-----8-l------8-----8-l------9------9-l-9--l
e -------8-----l--------8------l-------8-----l--------8-----l--------8------l-8--l
              la   palabra   precisa   la  sonrisa     perfecta

         G                    C
ojala pase algo que te borre de pronto, 

     E           Am
una luz cegadora,

       C        F      
un disparo de nieve, 

            G                       C
ojala por lo menos que me lleve la muerte,

     E            Am
para no verte tanto, 

      C            F
para no verte siempre en todos los segun-


  D                  Dmaj7             D7               D6       
E ------------------l------------------l-----------------l-----------------l
A ------------------l------------------l-----------------l-----------------l
D -0----------------l-0----------------l-0---------------l-0---------------l
G ---10-------10----l---10-------10----l---10------10----l---10------10----l
B ------10-------10-l------10-------10-l------10------10-l------10------10-l
e ---------10-------l---------9--------l---------8-------l---------7-------l
   do-o-s                                     en  todas  las  visio-

   C             C             C             C             
E -8-----------l---------------l-8-----------l--------------l
A -------------l---------------l-------------l--------------l
D -------------l-10------------l-------------l-10-----------l
G ---9-----9---l----9-----9----l---9-----9---l----9-----9---l
B -----8-----8-l------8-----8--l-----8-----8-l------8-----8-l
e -------8-----l--------8------l-------8-----l--------8-----l 
   -ne-e-e-e-e-s.....

   F               F                G                     G              G             G
E ---------------l----------------l-3-----------l-------------l-3-----------l-------------l
A -8-------------l----------------l-------------l-------------l-------------l-------------l
D ---------------l-10-------------l-------------l-5-----------l-------------l-5-----------l
G ---10-----10---l----10-----10---l---4-----4---l---4-----4---l---4-----4---l---4-----4---l
B ------9------9-l-------9------9-l-----3-----3-l-----3-----3-l-----3-----3-l-----3-----3-l
e --------8------l---------8------l-------3-----l-------3-----l ------3-----l-------3-----l
             ojala   que   no   pueda                               tocarte ni en can-

  D                  Dmaj7             D7               D6       
E ------------------l------------------l-----------------l-----------------l
A ------------------l------------------l-----------------l-----------------l
D -0----------------l-0----------------l-0---------------l-0---------------l
G ---10-------10----l---10-------10----l---10------10----l---10------10----l
B ------10-------10-l------10-------10-l------10------10-l------10------10-l
e ---------10-------l---------9--------l---------8-------l---------7-------l
   cione-e-e-s.

  D                  Dmaj7             D7               D6       
E ------------------l------------------l-----------------l-----------------l
A ------------------l------------------l-----------------l-----------------l
D -0----------------l-0----------------l-0---------------l-0---------------l
G ---10-------10----l---10-------10----l---10------10----l---10------10----l
B ------10-------10-l------10-------10-l------10------10-l------10------10-l
e ---------10-------l---------9--------l---------8-------l---------7-------l

  D                  Dmaj7             D7               D6       
E ------------------l------------------l-----------------l-----------------l
A ------------------l------------------l-----------------l-----------------l
D -0----------------l-0----------------l-0---------------l-0---------------l
G ---10-------10----l---10-------10----l---10------10----l---10------10----l
B ------10-------10-l------10-------10-l------10------10-l------10------10-l
e ---------10-------l---------9--------l---------8-------l---------7-------l
                ojala   que   la   aurora  no  de  gritos       que 

  D                  Dmaj7             D7               D6       
E ------------------l------------------l-----------------l-----------------l
A ------------------l------------------l-----------------l-----------------l
D -0----------------l-0----------------l-0---------------l-0---------------l
G ---10-------10----l---10-------10----l---10------10----l---10------10----l
B ------10-------10-l------10-------10-l------10------10-l------10------10-l
e ---------10-------l---------9--------l---------8-------l---------7-------l
    caigan  en  mi  espalda-a-a...

   C             C             C             C       
E -8-----------l---------------l-8-----------l--------------l
A -------------l---------------l-------------l--------------l
D -------------l-10------------l-------------l-10-----------l
G ---9-----9---l----9-----9----l---9-----9---l----9-----9---l
B -----8-----8-l------8-----8--l-----8-----8-l------8-----8-l
e -------8-----l--------8------l-------8-----l--------8-----l
             ojala  que  tu   nombre-e-e..  se le olvide a 

  D                  Dmaj7             D7               D6       
E ------------------l------------------l-----------------l-----------------l
A ------------------l------------------l-----------------l-----------------l
D -0----------------l-0----------------l-0---------------l-0---------------l
G ---10-------10----l---10-------10----l---10------10----l---10------10----l
B ------10-------10-l------10-------10-l------10------10-l------10------10-l
e ---------10-------l---------9--------l---------8-------l---------7-------l
   a esa vo-o-o-z

   Em/B         Em/B             A             A       
E -------------l-------------l-5-----------l-------------l
A -7-----------l-------------l-------------l-------------l
D -------------l-9-----------l-------------l-7-----------l
G ---9-----9---l---9-----9---l---6-----6---l---6-----6---l
B -----8-----8-l-----8-----8-l-----5-----5-l-----5-----5-l
e -------7-----l-------7-----l-------5-----l-------5-----l
               ojala    las    paredes    no    retengan

   Dm                C#m           Bm            Bm/A
E -------------l-------------l-------------l-------------l
A -5-----------l-4-----------l-2-----------l-0-----------l
D -------------l-------------l-------------l-------------l
G ---7-----7---l---6-----6---l---4-----4---l---4-----4---l
B -----6-----6-l-----5-----5-l-----3-----3-l-----3-----3-l
e -------5-----l-------4-----l-------2-----l-------2-----l
    tu   ruido  de   camino   cansado-o-o

   A             A             G             F#       
E -5-----------l-------------l-3-----------l-2-----------l
A -------------l-------------l-------------l-------------l
D -------------l-7-----------l-------------l-------------l
G ---6-----6---l---6-----6---l---4-----4---l---3-----3---l
B -----5-----5-l-----5-----5-l-----3-----3-l-----2-----2-l
e -------5-----l-------5-----l-------2-----l-------2-----l
            ojala  que  el  deseo     se vaya   tras  
B  Bm               Bm/A              E             Esus4  E  
E -------------l-------------l-0-----------l-------------l
A -2-----------l-0-----------l-------------l-------------l
D -------------l-------------l-------------l-------------l
G ---4-----4---l---4-----4---l---1-----1---l-2-----1-----l
B -----3-----3-l-----3-----3-l-----0-----0-l---0-----0---l
e -------2-----l-------2-----l-------0-----l-----0-----0-l
   de  ti-i-i

B  Dm               D2/C               D2/A#         A       
E -------------l-------------l-------------l-------------l
A -------------l-3-----------l-1-----------l-0-----------l
D -0-----------l-------------l-------------l-------------l
G ---2-----2---l---2-----2---l---2-----2---l---2-----2---l
B -----3-----3-l-----3-----3-l-----3-----3-l-----2-----2-l
e -------1-----l-------0-----l-------0-----l-------0-----l     
           a  tu  viejo  gobierno   de difuntos  y flo-

  D                  Dmaj7             D7               D6       
E ------------------l------------------l-----------------l-----------------l
A ------------------l------------------l-----------------l-----------------l
D -0----------------l-0----------------l-0---------------l-0---------------l
G ---10-------10----l---10-------10----l---10------10----l---10------10----l
B ------10-------10-l------10-------10-l------10------10-l------10------10-l
e ---------10-------l---------9--------l---------8-------l---------7-------l
   re-e-es.

  D                  Dmaj7             D7               D6       
E ------------------l------------------l-----------------l-----------------l
A ------------------l------------------l-----------------l-----------------l
D -0----------------l-0----------------l-0---------------l-0---------------l
G ---10-------10----l---10-------10----l---10------10----l---10------10----l
B ------10-------10-l------10-------10-l------10------10-l------10------10-l
e ---------10-------l---------9--------l---------8-------l---------7-------l
                 ojala   se    te     acabe    la       mirada     constante

   C             C             C             C             F                  F
E -8-----------l---------------l-8-----------l--------------l---------------l-8--l
A -------------l---------------l-------------l--------------l-8-------------l-8--l
D -------------l-10------------l-------------l-10-----------l---------------l-10-l
G ---9-----9---l----9-----9----l---9-----9---l----9-----9---l---10-----10---l-10-lrasgueos
B -----8-----8-l------8-----8--l-----8-----8-l------8-----8-l------9------9-l-9--l
e -------8-----l--------8------l-------8-----l--------8-----l--------8------l-8--l
              la   palabra   precisa   la  sonrisa     perfecta

         G                    C
ojala pase algo que te borre de pronto, 

     E           Am
una luz cegadora,

       C        F      
un disparo de nieve, 

            G                       C
ojala por lo menos que me lleve la muerte,

     E            Am
para no verte tanto, 

      C            F
para no verte siempre 

                G                       C
en todos los segundos en todas las visiones

    E          Am
ojala que no pueda 

   C               F
tocarte ni en canciones 
   
         G                    C
ojala pase algo que te borre de pronto, 

     E           Am
una luz cegadora,

       C        F      
un disparo de nieve, 

            G                       C
ojala por lo menos que me lleve la muerte,

     E            Am
para no verte tanto, 

      C            F
para no verte siempre 


en todos los segun- 


  D                  Dmaj7             D7               D6       
E ------------------l------------------l-----------------l-----------------l
A ------------------l------------------l-----------------l-----------------l
D -0----------------l-0----------------l-0---------------l-0---------------l
G ---10-------10----l---10-------10----l---10------10----l---10------10----l
B ------10-------10-l------10-------10-l------10------10-l------10------10-l
e ---------10-------l---------9--------l---------8-------l---------7-------l
   do-o-s                                     en  todas  las  visio-

   C             C             C             C             
E -8-----------l---------------l-8-----------l--------------l
A -------------l---------------l-------------l--------------l
D -------------l-10------------l-------------l-10-----------l
G ---9-----9---l----9-----9----l---9-----9---l----9-----9---l
B -----8-----8-l------8-----8--l-----8-----8-l------8-----8-l
e -------8-----l--------8------l-------8-----l--------8-----l 
   -ne-e-e-e-e-s.....

   F               F                G                     G              G             G
E ---------------l----------------l-3-----------l-------------l-3-----------l-------------l
A -8-------------l----------------l-------------l-------------l-------------l-------------l
D ---------------l-10-------------l-------------l-5-----------l-------------l-5-----------l
G ---10-----10---l----10-----10---l---4-----4---l---4-----4---l---4-----4---l---4-----4---l
B ------9------9-l-------9------9-l-----3-----3-l-----3-----3-l-----3-----3-l-----3-----3-l
e --------8------l---------8------l-------3-----l-------3-----l ------3-----l-------3-----l
             ojala   que   no   pueda                               tocarte ni en can-

   C             C/B             C/A           C/G          F             C/E
E -------------l-------------l-------------l-3-----------l-1-----------l-------------l
A -3-----------l-2-----------l-0-----------l-------------l-------------l-------------l
D -------------l-------------l-------------l-------------l-------------l-2-----------l
G ---0-----0---l---0-----0---l---0-----0---l---0-----0---l---2-----2---l---0-----0---l
B -----1-----1-l-----1-----1-l-----1-----1-l-----1-----1-l-----1-----1-l-----1-----1-l
e -------0-----l-------0-----l-------0-----l-------0-----l ------1-----l-------0-----l
   cione-e-e-s.

  D                  Dmaj7             D7               D6       
E ------------------l------------------l-----------------l-----------------l
A ------------------l------------------l-----------------l-----------------l
D -0----------------l-0----------------l-0---------------l-0---------------l
G ---10-------10----l---10-------10----l---10------10----l---10------10----l
B ------10-------10-l------10-------10-l------10------10-l------10------10-l
e ---------10-------l---------9--------l---------8-------l---------7-------l


   C             C             C               C                 C
E -8-----------l-8-------------l-8-------------l-8--------------l-x--l
A -------------l---------------l---------------l----------------l-x--l
D -------------l---10----------l---10----------l---10-----------l-10-l
G ---9-----9---l------9--------l------9--------l------9---------l-9--l
B -----8-----8-l--------8h10---l--------8h10---l--------8--10---l-8--l
e -------8-----l-------------8-l-------------8-l--------------8-l-8--l
                                           aqui no
                                         lleva hammer


tan tan.
 bueno , alguna observacion mandarmela a mi mail.
 Me despido
Versión 3 - Ojalá (Tablatura para guitarra (TAB))
Hola, hago una modificacion a la tablatura para que quede totalmente
optima! El tema esta en compases de 6/8 y esta tocado en una velocidad
de 100 en un metronomo con una duracion de cada nota de una semicorchea...

Saludos


     Dm               Dmmaj7             Dm7             Dm6
E||----------10---------------9-------|----------8---------------7-------|
B||-------10-------10------10------10-|-------10------10------10------10-|
G||----10-------10------10------10----|----10------10------10------10----|
D||--0----------------0---------------|--0---------------0---------------|
A||-----------------------------------|----------------------------------|
E||-----------------------------------|----------------------------------|


  Dm               Dmmaj7             Dm7             Dm6
----------10---------------9-------|----------8---------------7-------|
-------10-------10------10------10-|-------10------10------10------10-|
----10-------10------10------10----|----10------10------10------10----|
--0----------------0---------------|--0---------------0---------------|
-----------------------------------|----------------------------------|
-----------------------------------|----------------------------------|


  Dm               Dmmaj7             Dm7             Dm6
----------10---------------9-------|----------8---------------7-------|
-------10-------10------10------10-|-------10------10------10------10-|
----10-------10------10------10----|----10------10------10------10----|
--0----------------0---------------|--0---------------0---------------|
-----------------------------------|----------------------------------|
-----------------------------------|----------------------------------|


  Dm               Dmmaj7             Dm7             Dm6
----------10---------------9-------|----------8---------------7-------|
-------10-------10------10------10-|-------10------10------10------10-|
----10-------10------10------10----|----10------10------10------10----|
--0----------------0---------------|--0---------------0---------------|
-----------------------------------|----------------------------------|
-----------------------------------|----------------------------------|


  C                           C
--------8------------8-----|--------8------------8-----|
------8-----8------8-----8-|------8-----8------8-----8-|
----9-----9------9-----9---|----9-----9------9-----9---|
--------------10-----------|--------------10-----------|
---------------------------|---------------------------|
--8------------------------|--8------------------------|


  Dm               Dmmaj7             Dm7             Dm6
----------10---------------9-------|----------8---------------7-------|
-------10-------10------10------10-|-------10------10------10------10-|
----10-------10------10------10----|----10------10------10------10----|
--0----------------0---------------|--0---------------0---------------|
-----------------------------------|----------------------------------|
-----------------------------------|----------------------------------|


  Em                         A
--------7-----------7-----|--------5-----------5-----|
------8-----8-----8-----8-|------5-----5-----5-----5-|
----9-----9-----9-----9---|----6-----6-----6-----6---|
--------------9-----------|--------------7-----------|
--7-----------------------|--------------------------|
--------------------------|--5-----------------------|


  Dm          C#m            Bm          Bm/A
--------5-----------4-----|--------2-----------2-----|
------6-----6-----5-----5-|------3-----3-----3-----3-|
----7-----7-----6-----6---|----4-----4-----4-----4---|
--------------------------|--------------------------|
--5-----------4-----------|--2-----------0-----------|
--------------------------|--------------------------|


  A                          G           F#
--------5-----------5-----|--------3-----------2-----|
------5-----5-----5-----5-|------3-----3-----2-----2-|
----6-----6-----6-----6---|----4-----4-----3-----3---|
--------------7-----------|--------------------------|
--------------------------|--------------------------|
--5-----------------------|--3-----------2-----------|


  Bm          Bm/A           E           Esus4 E
--------2-----------2-----|--------0---------0-----0-|
------3-----3-----3-----3-|------0-----0---0-----0---|
----4-----4-----4-----4---|----1-----1---2-----1-----|
--------------------------|--------------------------|
--2-----------0-----------|--------------------------|
--------------------------|--0-----------------------|


  Dm          Dm/C           Dm/B        Dm/A#
--------1-----------1-----|--------1-----------1-----|
------3-----3-----3-----3-|------3-----3-----3-----3-|
----2-----2-----2-----2---|----2-----2-----2-----2---|
--0-----------------------|--------------------------|
--------------3-----------|--2-----------1-----------|
--------------------------|--------------------------|


  Dm               Dmmaj7             Dm7             Dm6
----------10---------------9-------|----------8---------------7-------|
-------10-------10------10------10-|-------10------10------10------10-|
----10-------10------10------10----|----10------10------10------10----|
--0----------------0---------------|--0---------------0---------------|
-----------------------------------|----------------------------------|
-----------------------------------|----------------------------------|


 Dm               Dmmaj7             Dm7             Dm6
----------10---------------9-------|----------8---------------7-------|
-------10-------10------10------10-|-------10------10------10------10-|
----10-------10------10------10----|----10------10------10------10----|
--0----------------0---------------|--0---------------0---------------|
-----------------------------------|----------------------------------|
-----------------------------------|----------------------------------|


  C                           C
--------8------------8-----|--------8------------8-----|
------8-----8------8-----8-|------8-----8------8-----8-|
----9-----9------9-----9---|----9-----9------9-----9---|
--------------10-----------|--------------10-----------|
---------------------------|---------------------------|
--8------------------------|--8------------------------|


  Fm                              G
---------8--------------8------|--------3-----------3-----|
-------9------9-------9------9-|------3-----3-----3-----3-|
----10-----10------10-----10---|----4-----4-----4-----4---|
----------------10-------------|--------------5-----------|
--8----------------------------|--------------------------|
-------------------------------|--3-----------------------|


  C           E              Am          C
--------0-----------0-----|--------0-----------0-----|
------1-----1-----0-----0-|------1-----1-----1-----1-|
----0-----0-----1-----1---|----2-----2-----0-----0---|
--------------------------|--------------------------|
--3-----------------------|--0-----------3-----------|
--------------0-----------|--------------------------|


  F                          G
--------1-----------1-----|--------3-----------3-----|
------1-----1-----1-----1-|------3-----3-----3-----3-|
----2-----2-----2-----2---|----4-----4-----4-----4---|
--------------3-----------|--------------5-----------|
--------------------------|--------------------------|
--1-----------------------|--3-----------------------|


  C           E              Am          C
--------0-----------0-----|--------0-----------0-----|
------1-----1-----0-----0-|------1-----1-----1-----1-|
----0-----0-----1-----1---|----2-----2-----0-----0---|
--------------------------|--------------------------|
--3-----------------------|--0-----------3-----------|
--------------0-----------|--------------------------|


  F                          Dm               Dmmaj7
--------1-----------1-----|----------10---------------9-------|
------1-----1-----1-----1-|-------10-------10------10------10-|
----2-----2-----2-----2---|----10-------10------10------10----|
--------------3-----------|--0----------------0---------------|
--------------------------|-----------------------------------|
--1-----------------------|-----------------------------------|


  Dm7             Dm6                C
----------8---------------7-------|--------8------------8-----|
-------10------10------10------10-|------8-----8------8-----8-|
----10------10------10------10----|----9-----9------9-----9---|
--0---------------0---------------|--------------10-----------|
----------------------------------|---------------------------|
----------------------------------|--8------------------------|


  C                           Fm
--------8------------8-----|---------8--------------8------|
------8-----8------8-----8-|-------9------9-------9------9-|
----9-----9------9-----9---|----10-----10------10-----10---|
--------------10-----------|----------------10-------------|
---------------------------|--8----------------------------|
--8------------------------|-------------------------------|


  G                          G
--------3-----------3-----|--------3-----------3-----|
------3-----3-----3-----3-|------3-----3-----3-----3-|
----4-----4-----4-----4---|----4-----4-----4-----4---|
--------------5-----------|--------------5-----------|
--------------------------|--------------------------|
--3-----------------------|--3-----------------------|


  Dm               Dmmaj7             Dm7             Dm6
----------10---------------9-------|----------8---------------7-------|
-------10-------10------10------10-|-------10------10------10------10-|
----10-------10------10------10----|----10------10------10------10----|
--0----------------0---------------|--0---------------0---------------|
-----------------------------------|----------------------------------|
-----------------------------------|----------------------------------|


  Dm               Dmmaj7             Dm7             Dm6
----------10---------------9-------|----------8---------------7-------|
-------10-------10------10------10-|-------10------10------10------10-|
----10-------10------10------10----|----10------10------10------10----|
--0----------------0---------------|--0---------------0---------------|
-----------------------------------|----------------------------------|
-----------------------------------|----------------------------------|


  Dm               Dmmaj7             Dm7             Dm6
----------10---------------9-------|----------8---------------7-------|
-------10-------10------10------10-|-------10------10------10------10-|
----10-------10------10------10----|----10------10------10------10----|
--0----------------0---------------|--0---------------0---------------|
-----------------------------------|----------------------------------|
-----------------------------------|----------------------------------|


  Dm               Dmmaj7             Dm7             Dm6
----------10---------------9-------|----------8---------------7-------|
-------10-------10------10------10-|-------10------10------10------10-|
----10-------10------10------10----|----10------10------10------10----|
--0----------------0---------------|--0---------------0---------------|
-----------------------------------|----------------------------------|
-----------------------------------|----------------------------------|


  C                           C
--------8------------8-----|--------8------------8-----|
------8-----8------8-----8-|------8-----8------8-----8-|
----9-----9------9-----9---|----9-----9------9-----9---|
--------------10-----------|--------------10-----------|
---------------------------|---------------------------|
--8------------------------|--8------------------------|


  Dm               Dmmaj7             Dm7             Dm6
----------10---------------9-------|----------8---------------7-------|
-------10-------10------10------10-|-------10------10------10------10-|
----10-------10------10------10----|----10------10------10------10----|
--0----------------0---------------|--0---------------0---------------|
-----------------------------------|----------------------------------|
-----------------------------------|----------------------------------|


  Em                         A
--------7-----------7-----|--------5-----------5-----|
------8-----8-----8-----8-|------5-----5-----5-----5-|
----9-----9-----9-----9---|----6-----6-----6-----6---|
--------------9-----------|--------------7-----------|
--7-----------------------|--------------------------|
--------------------------|--5-----------------------|


  Dm          C#m            Bm          Bm/A
--------5-----------4-----|--------2-----------2-----|
------6-----6-----5-----5-|------3-----3-----3-----3-|
----7-----7-----6-----6---|----4-----4-----4-----4---|
--------------------------|--------------------------|
--5-----------4-----------|--2-----------0-----------|
--------------------------|--------------------------|


  A                          G           F#
--------5-----------5-----|--------3-----------2-----|
------5-----5-----5-----5-|------3-----3-----2-----2-|
----6-----6-----6-----6---|----4-----4-----3-----3---|
--------------7-----------|--------------------------|
--------------------------|--------------------------|
--5-----------------------|--3-----------2-----------|


  Bm          Bm/A           E           Esus4 E
--------2-----------2-----|--------0---------0-----0-|
------3-----3-----3-----3-|------0-----0---0-----0---|
----4-----4-----4-----4---|----1-----1---2-----1-----|
--------------------------|--------------------------|
--2-----------0-----------|--------------------------|
--------------------------|--0-----------------------|


  Dm          Dm/C           Dm/B        Dm/A#
--------1-----------1-----|--------1-----------1-----|
------3-----3-----3-----3-|------3-----3-----3-----3-|
----2-----2-----2-----2---|----2-----2-----2-----2---|
--0-----------------------|--------------------------|
--------------3-----------|--2-----------1-----------|
--------------------------|--------------------------|


  Dm               Dmmaj7             Dm7             Dm6
----------10---------------9-------|----------8---------------7-------|
-------10-------10------10------10-|-------10------10------10------10-|
----10-------10------10------10----|----10------10------10------10----|
--0----------------0---------------|--0---------------0---------------|
-----------------------------------|----------------------------------|
-----------------------------------|----------------------------------|


  Dm               Dmmaj7             Dm7             Dm6
----------10---------------9-------|----------8---------------7-------|
-------10-------10------10------10-|-------10------10------10------10-|
----10-------10------10------10----|----10------10------10------10----|
--0----------------0---------------|--0---------------0---------------|
-----------------------------------|----------------------------------|
-----------------------------------|----------------------------------|


  C                           C
--------8------------8-----|--------8------------8-----|
------8-----8------8-----8-|------8-----8------8-----8-|
----9-----9------9-----9---|----9-----9------9-----9---|
--------------10-----------|--------------10-----------|
---------------------------|---------------------------|
--8------------------------|--8------------------------|


  Fm                              G
---------8--------------8------|--------3-----------3-----|
-------9------9-------9------9-|------3-----3-----3-----3-|
----10-----10------10-----10---|----4-----4-----4-----4---|
----------------10-------------|--------------5-----------|
--8----------------------------|--------------------------|
-------------------------------|--3-----------------------|


  C           E              A           C
--------0-----------0-----|--------0-----------0-----|
------1-----1-----0-----0-|------1-----1-----1-----1-|
----0-----0-----1-----1---|----2-----2-----0-----0---|
--------------------------|--------------------------|
--3-----------------------|--0-----------3-----------|
--------------0-----------|--------------------------|


  F                          G
--------1-----------1-----|--------3-----------3-----|
------1-----1-----1-----1-|------3-----3-----3-----3-|
----2-----2-----2-----2---|----4-----4-----4-----4---|
--------------3-----------|--------------5-----------|
--------------------------|--------------------------|
--1-----------------------|--3-----------------------|



  C           E              A           C
--------0-----------0-----|--------0-----------0-----|
------1-----1-----0-----0-|------1-----1-----1-----1-|
----0-----0-----1-----1---|----2-----2-----0-----0---|
--------------------------|--------------------------|
--3-----------------------|--0-----------3-----------|
--------------0-----------|--------------------------|


  F                          G
--------1-----------1-----|--------3-----------3-----|
------1-----1-----1-----1-|------3-----3-----3-----3-|
----2-----2-----2-----2---|----4-----4-----4-----4---|
--------------3-----------|--------------5-----------|
--------------------------|--------------------------|
--1-----------------------|--3-----------------------|



  C           E              A           C
--------0-----------0-----|--------0-----------0-----|
------1-----1-----0-----0-|------1-----1-----1-----1-|
----0-----0-----1-----1---|----2-----2-----0-----0---|
--------------------------|--------------------------|
--3-----------------------|--0-----------3-----------|
--------------0-----------|--------------------------|


  F                          G
--------1-----------1-----|--------3-----------3-----|
------1-----1-----1-----1-|------3-----3-----3-----3-|
----2-----2-----2-----2---|----4-----4-----4-----4---|
--------------3-----------|--------------5-----------|
--------------------------|--------------------------|
--1-----------------------|--3-----------------------|



  C           E              A           C
--------0-----------0-----|--------0-----------0-----|
------1-----1-----0-----0-|------1-----1-----1-----1-|
----0-----0-----1-----1---|----2-----2-----0-----0---|
--------------------------|--------------------------|
--3-----------------------|--0-----------3-----------|
--------------0-----------|--------------------------|


  F                          Dm               Dmmaj7
--------1-----------1-----|----------10---------------9-------|
------1-----1-----1-----1-|-------10-------10------10------10-|
----2-----2-----2-----2---|----10-------10------10------10----|
--------------3-----------|--0----------------0---------------|
--------------------------|-----------------------------------|
--1-----------------------|-----------------------------------|


  Dm7             Dm6                C
----------8---------------7-------|--------8------------8-----|
-------10------10------10------10-|------8-----8------8-----8-|
----10------10------10------10----|----9-----9------9-----9---|
--0---------------0---------------|--------------10-----------|
----------------------------------|---------------------------|
----------------------------------|--8------------------------|


  C                           Fm
--------8------------8-----|---------8--------------8------|
------8-----8------8-----8-|-------9------9-------9------9-|
----9-----9------9-----9---|----10-----10------10-----10---|
--------------10-----------|----------------10-------------|
---------------------------|--8----------------------------|
--8------------------------|-------------------------------|


  G                          G
--------3-----------3-----|--------3-----------3-----|
------3-----3-----3-----3-|------3-----3-----3-----3-|
----4-----4-----4-----4---|----4-----4-----4-----4---|
--------------5-----------|--------------5-----------|
--------------------------|--------------------------|
--3-----------------------|--3-----------------------|


  C           C/B            Am          Am/G
--------0-----------0-----|--------0-----------0-----|
------1-----1-----1-----1-|------1-----1-----1-----1-|
----0-----0-----0-----0---|----2-----2-----2-----2---|
--------------------------|--------------------------|
--3-----------2-----------|--0-----------------------|
--------------------------|--------------3-----------|


  F           Em             Dm               Dmmaj7
--------1-----------0-----|----------10---------------9-------|
------1-----1-----0-----0-|-------10-------10------10------10-|
----2-----2-----0-----0---|----10-------10------10------10----|
--------------------------|--0----------------0---------------|
--------------------------|-----------------------------------|
--1-----------0-----------|-----------------------------------|


  Dm7             Dm6                C
----------8---------------7-------|--------8------------8-----|
-------10------10------10------10-|------8-----8------8-----8-|
----10------10------10------10----|----9-----9------9-----9---|
--0---------------0---------------|--------------10-----------|
----------------------------------|---------------------------|
----------------------------------|--8------------------------|


  C7                               C
---------8--------------8------|---8----------------||
------11-----11------11-----11-|---8----------------||
----9------9-------9------9----|---9----------------||
----------------10-------------|--10----------------||
-------------------------------|--10----------------||
--8----------------------------|---8----------------||


Espero que puedan sacarlo bien... cualquier duda o critica manden mail...
Gracias
Versión 4 - Ojalá (Tablatura para guitarra (TAB))
OJALA (SILVIO RODRÍGUEZ)

BUENO ACÁ ESTA LA CORRECCIÓN A LA QUE MANDE ANTERIORMENTE ESTA SE TOCA EN COMPÁS
DE 6/8 (TRES CORCHEAS COMO SI FUERA UN TIEMPO) A UN TIEMPO DE 60 EN METRÓNOMO
PARA LA PARTITURA. EN ESTE CASO PARA LA TABLATURA SE HACE EN 2/4 (COMO LO DIVIDÍ)
Y CADA TRES NOTAS UN TRISILLO. DUDAS O COMENTARIOS ELKINURU87@YAHOO.COM

--|-Dm*---------------|-Dm7maj----------|-Dm7-------------|-Dm6maj----------|
E-|----------10-------|---------9-------|---------8-------|---------7-------|
B-|-------10-------10-|------10------10-|------10------10-|------10------10-|  Intro
G-|----10-------10----|---10------10----|---10------10----|---10------10----|   x 2
D-|-0-----------------|-0---------------|-0---------------|-0---------------|
A-|-------------------|-----------------|-----------------|-----------------|
E-|-------------------|-----------------|-----------------|-----------------|

--|-Dm*---------------|-Dm7maj----------|-Dm7-------------|-Dm6maj----------|
E-|----------10-------|---------9-------|---------8-------|---------7-------|
B-|-------10-------10-|------10------10-|------10------10-|------10------10-|
G-|----10-------10----|---10------10----|---10------10----|---10------10----|
D-|-0-----------------|-0---------------|-0---------------|-0---------------|
A-|-------------------|-----------------|-----------------|-----------------|
E-|-------------------|-----------------|-----------------|-----------------|

--|-Dm*---------------|-Dm7maj----------|-Dm7-------------|-Dm6maj----------|
E-|----------10-------|---------9-------|---------8-------|---------7-------|
B-|-------10-------10-|------10------10-|------10------10-|------10------10-|
G-|----10-------10----|---10------10----|---10------10----|---10------10----|
D-|-0-----------------|-0---------------|-0---------------|-0---------------|
A-|-------------------|-----------------|-----------------|-----------------|
E-|-------------------|-----------------|-----------------|-----------------|

--|-C*----------|-C*-----------|-C*----------|-C*-----------|
E-|-------8-----|--------8-----|-------8-----|--------8-----|
B-|-----8-----8-|------8-----8-|-----8-----8-|------8-----8-|
G-|---9-----9---|----9-----9---|---9-----9---|----9-----9---|
D-|-------------|-10-----------|-------------|-10-----------|
A-|-------------|--------------|-------------|--------------|
E-|-8-----------|--------------|-8-----------|--------------|

--|-Dm*---------------|-Dm7maj----------|-Dm7-------------|-Dm6maj----------|
E-|----------10-------|---------9-------|---------8-------|---------7-------|
B-|-------10-------10-|------10------10-|------10------10-|------10------10-|
G-|----10-------10----|---10------10----|---10------10----|---10------10----|
D-|-0-----------------|-0---------------|-0---------------|-0---------------|
A-|-------------------|-----------------|-----------------|-----------------|
E-|-------------------|-----------------|-----------------|-----------------|

--|-Em*---------|-Em*---------|-A-----------|-A-----------|
E-|-------7-----|-------7-----|-------5-----|-------5-----|
B-|-----8-----8-|-----8-----8-|-----5-----5-|-----5-----5-|
G-|---9-----9---|---9-----9---|---6-----6---|---6-----6---|
D-|-------------|-9-----------|-------------|-7-----------|
A-|-7-----------|-------------|-------------|-------------|
E-|-------------|-------------|-5-----------|-------------|

--|-D-----------|-F#m---------|-Bm----------|-Bm7---------|
E-|-------5-----|-------3-----|-------2-----|-------2-----|
B-|-----7-----7-|-----3-----3-|-----3-----3-|-----3-----3-|
G-|---7-----7---|---3-----3---|---4-----4---|---4-----4---|
D-|-------------|-4-----------|-------------|-------------|
A-|-5-----------|-------------|-2-----------|-0-----------|
E-|-------------|-------------|-------------|-------------|


--|-A-----------|-A-----------|-G-----------|-F#----------|
E-|-------5-----|-------5-----|-------3-----|-------2-----|
B-|-----5-----5-|-----5-----5-|-----3-----3-|-----2-----2-|
G-|---6-----6---|---6-----6---|---4-----4---|---3-----3---|
D-|-------------|-7-----------|-------------|-------------|
A-|-------------|-------------|-------------|-------------|
E-|-5-----------|-------------|-3-----------|-2-----------|

--|-Bm----------|-Bm7---------|-E-----------|-E4----------|
E-|-------2-----|-------2-----|-------0-----|-----0-----0-|
B-|-----3-----3-|-----3-----3-|-----0-----0-|---0-----0---|
G-|---4-----4---|---4-----4---|---1-----1---|-2-----1-----|
D-|-------------|-------------|-------------|-------------|
A-|-2-----------|-0-----------|-------------|-------------|
E-|-------------|-------------|-0-----------|-------------|


--|-Dm----------|-Dm7---------|-6maj--------|-A4----------|
E-|-------1-----|-------1-----|-------0-----|-------0-----|
B-|-----3-----3-|-----3-----3-|-----3-----3-|-----2-----2-|
G-|---2-----2---|---2-----2---|---0-----0---|---2-----2---|
D-|-0-----------|-------------|-------------|-------------|
A-|-------------|-3-----------|-1-----------|-0-----------|
E-|-------------|-------------|-------------|-------------|

--|-Dm*---------------|-Dm7maj----------|-Dm7-------------|-Dm6maj----------|
E-|----------10-------|---------9-------|---------8-------|---------7-------|
B-|-------10-------10-|------10------10-|------10------10-|------10------10-|  Intro
G-|----10-------10----|---10------10----|---10------10----|---10------10----|   x 2
D-|-0-----------------|-0---------------|-0---------------|-0---------------|
A-|-------------------|-----------------|-----------------|-----------------|
E-|-------------------|-----------------|-----------------|-----------------|

--|-Dm*---------------|-Dm7maj----------|-Dm7-------------|-Dm6maj----------|
E-|----------10-------|---------9-------|---------8-------|---------7-------|
B-|-------10-------10-|------10------10-|------10------10-|------10------10-|
G-|----10-------10----|---10------10----|---10------10----|---10------10----|
D-|-0-----------------|-0---------------|-0---------------|-0---------------|
A-|-------------------|-----------------|-----------------|-----------------|
E-|-------------------|-----------------|-----------------|-----------------|

--|-C*----------|-C*-----------|-C*----------|-C*-----------|
E-|-------8-----|--------8-----|-------8-----|--------8-----|
B-|-----8-----8-|------8-----8-|-----8-----8-|------8-----8-|
G-|---9-----9---|----9-----9---|---9-----9---|----9-----9---|
D-|-------------|-10-----------|-------------|-10-----------|
A-|-------------|--------------|-------------|--------------|
E-|-8-----------|--------------|-8-----------|--------------|

--|-Fm------------|-Fm-------------|-G-----------|-G-----------|
E-|--------8------|---------8------|-------3-----|-------3-----|
B-|------9------9-|-------9------9-|-----3-----3-|-----3-----3-|
G-|---10-----10---|----10-----10---|---4-----4---|---4-----4---|
D-|---------------|-10-------------|-------------|-5-----------|
A-|-8-------------|----------------|-------------|-------------|
E-|---------------|----------------|-3-----------|-------------|

--|-C-----------|-E-----------|-Am----------|.Am7---------|
E-|-------0-----|-------0-----|-------0-----|-------0-----|
B-|-----1-----1-|-----0-----0-|-----1-----1-|-----1-----1-|
G-|---0-----0---|---1-----1---|---2-----2---|---2-----2---|
D-|-------------|-------------|-------------|-------------|
A-|-3-----------|-------------|-0-----------|-------------|
E-|-------------|-0-----------|-------------|-3-----------|

--|-F-----------|-F-----------|-G-----------|-G-----------|
E-|-------1-----|-------1-----|-------3-----|-------3-----|
B-|-----1-----1-|-----1-----1-|-----3-----3-|-----3-----3-|
G-|---2-----2---|---2-----2---|---4-----4---|---4-----4---|
D-|-------------|-3-----------|-------------|-5-----------|
A-|-------------|-------------|-------------|-------------|
E-|-1-----------|-------------|-3-----------|-------------|

--|-C-----------|-E-----------|-Am----------|.Am7---------|
E-|-------0-----|-------0-----|-------0-----|-------0-----|
B-|-----1-----1-|-----0-----0-|-----1-----1-|-----1-----1-|
G-|---0-----0---|---1-----1---|---2-----2---|---2-----2---|
D-|-------------|-------------|-------------|-------------|
A-|-3-----------|-------------|-0-----------|-------------|
E-|-------------|-0-----------|-------------|-3-----------|

--|-F-----------|-F-----------|
E-|-------1-----|-------1-----|
B-|-----1-----1-|-----1-----1-|
G-|---2-----2---|---2-----2---|
D-|-------------|-3-----------|
A-|-------------|-------------|
E-|-1-----------|-------------|

--|-Dm*---------------|-Dm7maj----------|-Dm7-------------|-Dm6maj----------|
E-|----------10-------|---------9-------|---------8-------|---------7-------|
B-|-------10-------10-|------10------10-|------10------10-|------10------10-|
G-|----10-------10----|---10------10----|---10------10----|---10------10----|
D-|-0-----------------|-0---------------|-0---------------|-0---------------|
A-|-------------------|-----------------|-----------------|-----------------|
E-|-------------------|-----------------|-----------------|-----------------|

--|-C*----------|-C*-----------|-C*----------|-C*-----------|
E-|-------8-----|--------8-----|-------8-----|--------8-----|
B-|-----8-----8-|------8-----8-|-----8-----8-|------8-----8-|
G-|---9-----9---|----9-----9---|---9-----9---|----9-----9---|
D-|-------------|-10-----------|-------------|-10-----------|
A-|-------------|--------------|-------------|--------------|
E-|-8-----------|--------------|-8-----------|--------------|

--|-Fm------------|-Fm-------------|
E-|--------8------|---------8------|
B-|------9------9-|-------9------9-|
G-|---10-----10---|----10-----10---|
D-|---------------|-10-------------|
A-|-8-------------|----------------|
E-|---------------|----------------|

--|-G-----------|-G-----------|-G-----------|-G-----------|
E-|-------3-----|-------3-----|-------3-----|-------3-----|
B-|-----3-----3-|-----3-----3-|-----3-----3-|-----3-----3-|
G-|---4-----4---|---4-----4---|---4-----4---|---4-----4---|
D-|-------------|-5-----------|-------------|-5-----------|
A-|-------------|-------------|-------------|-------------|
E-|-3-----------|-------------|-3-----------|-------------|

--|-Dm*---------------|-Dm7maj----------|-Dm7-------------|-Dm6maj----------|
E-|----------10-------|---------9-------|---------8-------|---------7-------|
B-|-------10-------10-|------10------10-|------10------10-|------10------10-|  Intro
G-|----10-------10----|---10------10----|---10------10----|---10------10----|   x 2
D-|-0-----------------|-0---------------|-0---------------|-0---------------|
A-|-------------------|-----------------|-----------------|-----------------|
E-|-------------------|-----------------|-----------------|-----------------|

--|-Dm*---------------|-Dm7maj----------|-Dm7-------------|-Dm6maj----------|
E-|----------10-------|---------9-------|---------8-------|---------7-------|
B-|-------10-------10-|------10------10-|------10------10-|------10------10-|
G-|----10-------10----|---10------10----|---10------10----|---10------10----|
D-|-0-----------------|-0---------------|-0---------------|-0---------------|
A-|-------------------|-----------------|-----------------|-----------------|
E-|-------------------|-----------------|-----------------|-----------------|

--|-Dm*---------------|-Dm7maj----------|-Dm7-------------|-Dm6maj----------|
E-|----------10-------|---------9-------|---------8-------|---------7-------|
B-|-------10-------10-|------10------10-|------10------10-|------10------10-|
G-|----10-------10----|---10------10----|---10------10----|---10------10----|
D-|-0-----------------|-0---------------|-0---------------|-0---------------|
A-|-------------------|-----------------|-----------------|-----------------|
E-|-------------------|-----------------|-----------------|-----------------|

--|-C*----------|-C*-----------|-C*----------|-C*-----------|
E-|-------8-----|--------8-----|-------8-----|--------8-----|
B-|-----8-----8-|------8-----8-|-----8-----8-|------8-----8-|
G-|---9-----9---|----9-----9---|---9-----9---|----9-----9---|
D-|-------------|-10-----------|-------------|-10-----------|
A-|-------------|--------------|-------------|--------------|
E-|-8-----------|--------------|-8-----------|--------------|

--|-Dm*---------------|-Dm7maj----------|-Dm7-------------|-Dm6maj----------|
E-|----------10-------|---------9-------|---------8-------|---------7-------|
B-|-------10-------10-|------10------10-|------10------10-|------10------10-|
G-|----10-------10----|---10------10----|---10------10----|---10------10----|
D-|-0-----------------|-0---------------|-0---------------|-0---------------|
A-|-------------------|-----------------|-----------------|-----------------|
E-|-------------------|-----------------|-----------------|-----------------|

--|-Em*---------|-Em*---------|-A-----------|-A-----------|
E-|-------7-----|-------7-----|-------5-----|-------5-----|
B-|-----8-----8-|-----8-----8-|-----5-----5-|-----5-----5-|
G-|---9-----9---|---9-----9---|---6-----6---|---6-----6---|
D-|-------------|-9-----------|-------------|-7-----------|
A-|-7-----------|-------------|-------------|-------------|
E-|-------------|-------------|-5-----------|-------------|

--|-D-----------|-F#m---------|-Bm----------|-Bm7---------|
E-|-------5-----|-------3-----|-------2-----|-------2-----|
B-|-----7-----7-|-----3-----3-|-----3-----3-|-----3-----3-|
G-|---7-----7---|---3-----3---|---4-----4---|---4-----4---|
D-|-------------|-4-----------|-------------|-------------|
A-|-5-----------|-------------|-2-----------|-0-----------|
E-|-------------|-------------|-------------|-------------|

--|-A-----------|-A-----------|-G-----------|-F#----------|
E-|-------5-----|-------5-----|-------3-----|-------2-----|
B-|-----5-----5-|-----5-----5-|-----3-----3-|-----2-----2-|
G-|---6-----6---|---6-----6---|---4-----4---|---3-----3---|
D-|-------------|-7-----------|-------------|-------------|
A-|-------------|-------------|-------------|-------------|
E-|-5-----------|-------------|-3-----------|-2-----------|

--|-Bm----------|-Bm7---------|-E-----------|-E4----------|
E-|-------2-----|-------2-----|-------0-----|-----0-----0-|
B-|-----3-----3-|-----3-----3-|-----0-----0-|---0-----0---|
G-|---4-----4---|---4-----4---|---1-----1---|-2-----1-----|
D-|-------------|-------------|-------------|-------------|
A-|-2-----------|-0-----------|-------------|-------------|
E-|-------------|-------------|-0-----------|-------------|

--|-Dm----------|-Dm7---------|-6maj--------|-A4----------|
E-|-------1-----|-------1-----|-------0-----|-------0-----|
B-|-----3-----3-|-----3-----3-|-----3-----3-|-----2-----2-|
G-|---2-----2---|---2-----2---|---0-----0---|---2-----2---|
D-|-0-----------|-------------|-------------|-------------|
A-|-------------|-3-----------|-1-----------|-0-----------|
E-|-------------|-------------|-------------|-------------|

--|-Dm*---------------|-Dm7maj----------|-Dm7-------------|-Dm6maj----------|
E-|----------10-------|---------9-------|---------8-------|---------7-------|
B-|-------10-------10-|------10------10-|------10------10-|------10------10-|
G-|----10-------10----|---10------10----|---10------10----|---10------10----|
D-|-0-----------------|-0---------------|-0---------------|-0---------------|
A-|-------------------|-----------------|-----------------|-----------------|
E-|-------------------|-----------------|-----------------|-----------------|

--|-Dm*---------------|-Dm7maj----------|-Dm7-------------|-Dm6maj----------|
E-|----------10-------|---------9-------|---------8-------|---------7-------|
B-|-------10-------10-|------10------10-|------10------10-|------10------10-|
G-|----10-------10----|---10------10----|---10------10----|---10------10----|
D-|-0-----------------|-0---------------|-0---------------|-0---------------|
A-|-------------------|-----------------|-----------------|-----------------|
E-|-------------------|-----------------|-----------------|-----------------|

--|-C*----------|-C*-----------|-C*----------|-C*-----------|
E-|-------8-----|--------8-----|-------8-----|--------8-----|
B-|-----8-----8-|------8-----8-|-----8-----8-|------8-----8-|
G-|---9-----9---|----9-----9---|---9-----9---|----9-----9---|
D-|-------------|-10-----------|-------------|-10-----------|
A-|-------------|--------------|-------------|--------------|
E-|-8-----------|--------------|-8-----------|--------------|

--|-Fm------------|-Fm-------------|-G-----------|-G-----------|
E-|--------8------|---------8------|-------3-----|-------3-----|
B-|------9------9-|-------9------9-|-----3-----3-|-----3-----3-|
G-|---10-----10---|----10-----10---|---4-----4---|---4-----4---|
D-|---------------|-10-------------|-------------|-5-----------|
A-|-8-------------|----------------|-------------|-------------|
E-|---------------|----------------|-3-----------|-------------|

--|-C-----------|-E-----------|-Am----------|.Am7---------|
E-|-------0-----|-------0-----|-------0-----|-------0-----|
B-|-----1-----1-|-----0-----0-|-----1-----1-|-----1-----1-|
G-|---0-----0---|---1-----1---|---2-----2---|---2-----2---|
D-|-------------|-------------|-------------|-------------|
A-|-3-----------|-------------|-0-----------|-------------|
E-|-------------|-0-----------|-------------|-3-----------|

--|-F-----------|-F-----------|-G-----------|-G-----------|
E-|-------1-----|-------1-----|-------3-----|-------3-----|
B-|-----1-----1-|-----1-----1-|-----3-----3-|-----3-----3-|
G-|---2-----2---|---2-----2---|---4-----4---|---4-----4---|
D-|-------------|-3-----------|-------------|-5-----------|
A-|-------------|-------------|-------------|-------------|
E-|-1-----------|-------------|-3-----------|-------------|

--|-C-----------|-E-----------|-Am----------|.Am7---------|
E-|-------0-----|-------0-----|-------0-----|-------0-----|
B-|-----1-----1-|-----0-----0-|-----1-----1-|-----1-----1-|
G-|---0-----0---|---1-----1---|---2-----2---|---2-----2---|
D-|-------------|-------------|-------------|-------------|
A-|-3-----------|-------------|-0-----------|-------------|
E-|-------------|-0-----------|-------------|-3-----------|

--|-F-----------|-F-----------|-G-----------|-G-----------|
E-|-------1-----|-------1-----|-------3-----|-------3-----|
B-|-----1-----1-|-----1-----1-|-----3-----3-|-----3-----3-|
G-|---2-----2---|---2-----2---|---4-----4---|---4-----4---|
D-|-------------|-3-----------|-------------|-5-----------|
A-|-------------|-------------|-------------|-------------|
E-|-1-----------|-------------|-3-----------|-------------|

--|-C-----------|-E-----------|-Am----------|.Am7---------|
E-|-------0-----|-------0-----|-------0-----|-------0-----|
B-|-----1-----1-|-----0-----0-|-----1-----1-|-----1-----1-|
G-|---0-----0---|---1-----1---|---2-----2---|---2-----2---|
D-|-------------|-------------|-------------|-------------|
A-|-3-----------|-------------|-0-----------|-------------|
E-|-------------|-0-----------|-------------|-3-----------|

--|-F-----------|-F-----------|-G-----------|-G-----------|
E-|-------1-----|-------1-----|-------3-----|-------3-----|
B-|-----1-----1-|-----1-----1-|-----3-----3-|-----3-----3-|
G-|---2-----2---|---2-----2---|---4-----4---|---4-----4---|
D-|-------------|-3-----------|-------------|-5-----------|
A-|-------------|-------------|-------------|-------------|
E-|-1-----------|-------------|-3-----------|-------------|

--|-C-----------|-E-----------|-Am----------|.Am7---------|
E-|-------0-----|-------0-----|-------0-----|-------0-----|
B-|-----1-----1-|-----0-----0-|-----1-----1-|-----1-----1-|
G-|---0-----0---|---1-----1---|---2-----2---|---2-----2---|
D-|-------------|-------------|-------------|-------------|
A-|-3-----------|-------------|-0-----------|-------------|
E-|-------------|-0-----------|-------------|-3-----------|

--|-F-----------|-F-----------|
E-|-------1-----|-------1-----|
B-|-----1-----1-|-----1-----1-|
G-|---2-----2---|---2-----2---|
D-|-------------|-3-----------|
A-|-------------|-------------|
E-|-1-----------|-------------|

--|-Dm*---------------|-Dm7maj----------|-Dm7-------------|-Dm6maj----------|
E-|----------10-------|---------9-------|---------8-------|---------7-------|
B-|-------10-------10-|------10------10-|------10------10-|------10------10-|
G-|----10-------10----|---10------10----|---10------10----|---10------10----|
D-|-0-----------------|-0---------------|-0---------------|-0---------------|
A-|-------------------|-----------------|-----------------|-----------------|
E-|-------------------|-----------------|-----------------|-----------------|

--|-C*----------|-C*-----------|-C*----------|-C*-----------|
E-|-------8-----|--------8-----|-------8-----|--------8-----|
B-|-----8-----8-|------8-----8-|-----8-----8-|------8-----8-|
G-|---9-----9---|----9-----9---|---9-----9---|----9-----9---|
D-|-------------|-10-----------|-------------|-10-----------|
A-|-------------|--------------|-------------|--------------|
E-|-8-----------|--------------|-8-----------|--------------|

--|-Fm------------|-Fm-------------|
E-|--------8------|---------8------|
B-|------9------9-|-------9------9-|
G-|---10-----10---|----10-----10---|
D-|---------------|-10-------------|
A-|-8-------------|----------------|
E-|---------------|----------------|

--|-G-----------|-G-----------|-G-----------|-G-----------|
E-|-------3-----|-------3-----|-------3-----|-------3-----|
B-|-----3-----3-|-----3-----3-|-----3-----3-|-----3-----3-|
G-|---4-----4---|---4-----4---|---4-----4---|---4-----4---|
D-|-------------|-5-----------|-------------|-5-----------|
A-|-------------|-------------|-------------|-------------|
E-|-3-----------|-------------|-3-----------|-------------|

la canción es igual a excepción del final que es así:

--|-C-----------|-C7maj-------|-Am----------|-Am7---------|
E-|-------0-----|-------0-----|-------0-----|-------0-----|
B-|-----1-----1-|-----1-----1-|-----1-----1-|-----1-----1-|
G-|---0-----0---|---0-----0---|---2-----2---|---2-----2---|
D-|-------------|-------------|-------------|-------------|
A-|-3-----------|-2-----------|-0-----------|-------------|
E-|-------------|-------------|-------------|-3-----------|

--|-F-----------|-Em----------|
E-|-------1-----|-------0-----|
B-|-----1-----1-|-----0-----0-|
G-|---2-----2---|---0-----0---|
D-|-------------|-------------|
A-|-------------|-------------|
E-|-1-----------|-0-----------|

--|-Dm*---------------|-Dm7maj----------|-Dm7-------------|-Dm6maj----------|
E-|----------10-------|---------9-------|---------8-------|---------7-------|
B-|-------10-------10-|------10------10-|------10------10-|------10------10-|
G-|----10-------10----|---10------10----|---10------10----|---10------10----|
D-|-0-----------------|-0---------------|-0---------------|-0---------------|
A-|-------------------|-----------------|-----------------|-----------------|
E-|-------------------|-----------------|-----------------|-----------------|

                  Rit.
--|-C*----------|-C*-----------|-C*----------------|-C*---------|
E-|-------8-----|--------8-----|-------------------|-8----------|
B-|-----8-----8-|------8-----8-|---------10--------|-8----------|
G-|---9-----9---|----9-----9---|-------9-------9---|-9----------|
D-|-------------|-10-----------|----10------10-----|------------|
A-|-------------|--------------|-------------------|------------|
E-|-8-----------|--------------|--8----------------|------------|



(1)
Dm*          Dm7   Dm7           Dm6       Dm7*
Ojala que las hojas    No te toquen el cuerpo
          Dm7   Dm7  Dm6  C*
cuando caigan                   Para que no las puedas
                 Dm*  Dm7   Dm7  Dm6  Em*               A*
Convertir en cristal                      Ojala que la lluvia
               D*    F#m            Bm  Bm7  A*
Deje de ser milagro Que baja por tu cuerpo
          G         F#       Bm     Bm7  E  E4  E  Dm
Ojala que luna Pueda salir sin ti
   Dm7       Gm6          A        Dm*  Dm7   Dm7  Dm6
Ojala que la tierra No te bese los pasos

(2)
Dm*     Dm7    Dm7       Dm6    C*
Ojala se te acabe La mirada constante
                             F#m*
La palabra precisa La sonrisa perfecta

(3)
           G                         C
ojala pase algo Que te borre de pronto
     E      Am             Am7     F
Una luz segadora Un disparo de nieve


             G                         C
Ojala por lo menos Que me lleve la muerte
     E        Am        Am7       F
Para no verte tanto Para no verte siempre
              Dm*   Dm7   Dm7           Dm6    C*     F#m*
En todos los segundos         En todas las visiones
             G                      Dm*     Dm7   Dm7  Dm6
Ojala que no pueda Tocarte ni en canciones



(1)
ojala que la aurora no den gritos
que caigan en mi espalda ojala que tu nombre
Se le olvide a esa voz Ojala las paredes
No te retengan tu ruido De camino cansado
Ojala que el deseo Se vaya tras de ti
A tu viejo gobierno De difuntos y flores

(2)
[3] Bis       NO SE PUEDE SUPERAR LO PERFECTO. ELKIN URUEÑA

---Dm*--Dm7+--Dm7--Dm6---C*---Em*--A*---D*---

E---10----9----8----7----8----7----5----5----
B---10---10---10---10----8----8----5----7----
G---10---10---10---10----9----9----6----7----
D----x----x----x----x---10----9----7----7----
A----x----x----x----x---10----7----7----5----
E----x----x----x----x----8----7----5----5----


----Fm#--Bm---Bm7---G----F#----E---E4---Dm---Dm7--Gm6maj-

E----2----2----2----3----2----0----0----1----1----0-----
B----2----3----3----3----2----0----0----3----2----3-----
G----2----4----4----4----3----1----2----2----3----0-----
D----4----4----4----5----4----2----2----0----0----0-----
A----4----2----0----5----4----2----2----0----3----1-----
E----2----2----x----3----2----0----0----x----x----x-----


-----A4---C----Fm*--Am---Am7---F--C7maj--Em---

E----0----0-----8----0----0----1----0----0----      Rit: retardando
B----2----1-----9----1----1----1----1----0----      se hace mas lento
G----2----0----10----2----2----2----0----0----
D----2----2----10----2----2----3----3----2----
A----0----3-----8----0----0----3----2----2----
E----0----3-----8----0----3----1----x----0----

Dedicado a mis amigos de Granada Meta por que a pesar de lo ocupado que
Mantengo a un sigo ensayando. A, esto quedo perfecto por eso cuando la toquen
Me dan el credito. Dudas o comentarios escriban a Elkinuru87@yahoo.com
Versión 5 - Ojalá (Tablatura para guitarra (TAB))
+ Servidor FTP de la Universidad de Leon        +
+ ftp://est.unileon.es/pub/musica/acordes/esp/  +
+++++++++++++++++++++++++++++++++++++++++++++++++

    Esta primera estrofa ademas de ser la introduccion de la cancion
   canta...

               Ojala      que las hojas        no te toquen         el
      cuerpo  cuando      caigan
               Ojala      que la aurora        no de gritos         que
      caigan en mi espalda
      voooz
      taaal
      pasos
      flores

               Ojala      se  te acabe      la     mirada          cons-
E-|------------10---------------9----------------8---------------7-------------
B-|---------10-------10------10------10-------10------10------10------10-------
G-|------10-------10------10------10-------10------10------10------10----------
D-|---0-----------------0----------------0---------------0---------------------
A-|----------------------------------------------------------------------------
E-|----------------------------------------------------------------------------

           para   que  no  las puedas  convertir en cris-
           Ojala  que  tu   nombre  se le olvide a esa
     tante   la palabra    precisa  la sonrisa per-

E-|--------8------------8-----------8------------8-----------------------------
B-|------8-----8------8-----8-----8-----8------8-----8-------------------------
G-|----9-----9------9-----9-----9-----9------9-----9---------------------------
D-|--------------10-----------------------10-----------------------------------
A-|----------------------------------------------------------------------------
E-|--8------------------------8------------------------------------------------


           Ojala que la  lluvia       deje de ser milagro que baja por tu
           Ojala las         paredes         no re. tu ruido de  camino

E-|--------7------------7-----------5-----------5-----------5-----------4------
B-|------8-----8------8-----8-----5-----5-----5-----5-----6-----6-----5-----5--
G-|----9-----9------9-----9-----6-----6-----6-----6-----7-----7-----6-----6----
D-|---------------9-----------------------7------------------------------------
A-|--7------------------------------------------------5-----------4------------
E-|---------------------------5------------------------------------------------


    cuerpo                       Ojala  que la  luna     pueda  salir sin
  cansado                       Ojala  que el deseo     se vaya tras de

E-|--------2-----------2-----------5-----------5-----------3-----------2-------
B-|------3-----3-----3-----3-----5-----5-----5-----5-----3-----3-----2-----2---
G-|----4-----4-----4-----4-----6-----6-----6-----6-----4-----4-----3-----3-----
D-|--------------------------------------7-------------------------------------
A-|--2-----------0-------------------------------------------------------------
E-|--------------------------5-----------------------3-----------2-------------



     ti                                          Ojala que la
     ti                                          a tu viejo

E-|--------2-----------2-----------0---------0-----0-------1-----------1-------
B-|------3-----3-----3-----3-----0-----0---0-----0-------3-----3-----3-----3---
G-|----4-----4-----4-----4-----1-----1---2-----1-------2-----2-----2-----2-----
D-|--------------------------------------------------0-------------------------
A-|--2-----------0-----------------------------------------------3-------------
E-|--------------------------0-------------------------------------------------



     tierra no te bese los
  gobierno de difuntos y

E-|--------0-----------0-------------------------------------------------------
B-|------3-----3-----2-----2---------------------------------------------------
G-|----0-----0-----2-----2-----------------------------------------------------
D-|----------------------------------------------------------------------------
A-|--1-----------0-------------------------------------------------------------
E-|----------------------------------------------------------------------------




     fecta      Ojala         pase  algo que te borre de

E-|---------8--------------8------------3--------------------------------------
B-|-------9------9-------9------9-----3-----3----------------------------------
G-|----10-----10------10-----10-----4-----4------------------------------------
D-|----------------10----------------------------------------------------------
A-|--8-------------------------------------------------------------------------
E-|-------------------------------3--------------------------------------------

     C
     pronto
    E           Am
una luz cegadora
      C       F
un disparo de nieve
           G
ojala por lo menos
            C
que te lleve la muerte
     E            Am
para no verte tanto
     C            F
para no verte siempre
            (introduccion)
en todos los segundos
Versión 6 - Ojalá (Letra y acordes)
INTRO: Dm

Cada vez que aparece el acorde Dm tocar:

1º--------- 10--------------  9-------------- 8 -------------- 7 ---------
2º------ 10--- 10-------- 10--- 10-------- 10--- 10-------- 10-- 10-------
3º--- 10--------- 10-- 10--------- 10-- 10--------- 10-- 10-------- 10----
4º- 0--------------- 0----------------0--------------- 0------------------
5º------------------------------------------------------------------------
6º------------------------------------------------------------------------

Dm
   Ojala que las hojas no te toquen el cuerpo cuando caigas
C                                          Dm
  para que no las puedas convertir en cristal
Em                A
   Ojala que la lluvia deje de ser
 D          A/C#             Bm        Bm/A
milagro que baja por tu por tu cuerpo
A                G       F#            Bm Bm/A E7 E7sus4-E7
   ojala que la luna pueda salir sin ti
Dm      Dm/7      Bbmaj7      A          Dm
   Ojala que la tierra no te bese los pasos

Dm                                      C
    Ojala se te acabe la mirada constante,
                                   Fm
la palabra precisa la sonrisa perfecta
           G                         C
Ojala pase algo que te borre de pronto
    E7        Am        Am/G      F
una luz cegadora, un disparo de nieve,
              G                        C
ojala por lo menos que me lleve la muerte
     E7         Am        Am/G         F
para no verte tanto, para no verte siempre
                Dm                         C
en todos los segundos...en todas las visiones
F               G                        Dm
  Ojala que no pueda tocarte ni en canciones


Dm
Ojala que la aurora no de gritos que caigan en mi espalda
C                                        Dm
Ojala que tu nombre se le olvide esta voz
Em                               D       A/C#        Bm
Ojala las paredes no retengan tu ruido de camino cansado
A                G       F#         Bm Bm/A E7 E7sus4-E7
Ojala que el deseo se vaya tras de ti
Dm      Dm/7      Bbmaj7      A          Dm
a tu viejo gobierno de difuntos y flores

Dm                                      C
    Ojala se te acabe la mirada constante,
                                   Fm
la palabra precisa la sonrisa perfecta
           G                         C
Ojala pase algo que te borre de pronto
    E7        Am        Am/G      F
una luz cegadora, un disparo de nieve,
              G                        C
ojala por lo menos que me lleve la muerte
     E7         Am        Am/G         F
para no verte tanto, para no verte siempre
                Dm                         C
en todos los segundos  en todas las visiones
   E7        Am        Am/G      F
Ojala que no pueda tocarte ni en canciones
           G                         C
Ojala pase algo que te borre de pronto
    E7        Am        Am/G      F
una luz cegadora, un disparo de nieve,
              G                        C
ojala por lo menos que me lleve la muerte
     E7         Am        Am/G         F
para no verte tanto, para no verte siempre
                Dm                         C
en todos los segundos...en todas las visiones
F               G                        C
Ojala que no pueda tocarte ni en canciones

FINAL [ C G/B Am Am/G F Em C Dm C ]
Versión 7 - Ojalá (Letra y acordes)
INTRO: Dm

Cada vez que aparece el acorde Dm tocar:

1º--------- 10--------------  9-------------- 8 -------------- 7 ---------
2º------ 10--- 10-------- 10--- 10-------- 10--- 10-------- 10-- 10-------
3º--- 10--------- 10-- 10--------- 10-- 10--------- 10-- 10-------- 10----
4º- 0--------------- 0----------------0--------------- 0------------------
5º------------------------------------------------------------------------
6º------------------------------------------------------------------------

Dm     
   Ojala que las hojas no te toquen el cuerpo cuando caigas
C                                          Dm
  para que no las puedas convertir en cristal
Em                A               
   Ojala que la lluvia deje de ser
 D          A/C#             Bm        Bm/A
milagro que baja por tu por tu cuerpo
A                G       F#            Bm Bm/A E7 E7sus4-E7
   ojala que la luna pueda salir sin ti
Dm      Dm/7      Bbmaj7      A          Dm
   Ojala que la tierra no te bese los pasos

Dm                                      C
    Ojala se te acabe la mirada constante,
                                   Fm    
la palabra precisa la sonrisa perfecta
           G                         C
Ojala pase algo que te borre de pronto
    E7        Am        Am/G      F
una luz cegadora, un disparo de nieve,
              G                        C
ojala por lo menos que me lleve la muerte
     E7         Am        Am/G         F
para no verte tanto, para no verte siempre
                Dm                         C
en todos los segundos...en todas las visiones
F               G                        Dm
  Ojala que no pueda tocarte ni en canciones

Ojala que la aurora no de gritos que caigan en mi espalda
Ojala que tu nombre se le olvide esta voz
Ojala las paredes no retengan tu ruido de camino cansado
Ojala que el deseo se vaya tras de ti
a tu viejo gobierno de difuntos y flores

Ojala se te acabe la mirada constante,
la palabra precisa la sonrisa perfecta
Ojala pase algo que te borre de pronto
una luz cegadora, un disparo de nieve,
ojala por lo menos que me lleve la muerte
para no verte tanto, para no verte siempre
en todos los segundos...en todas las visiones
Ojala que no pueda tocarte ni en canciones
Ojala pase algo que te borre de pronto
una luz cegadora, un disparo de nieve,
ojala por lo menos que me lleve la muerte
para no verte tanto, para no verte siempre
en todos los segundos...en todas las visiones
                                         C

Ojala que no pueda tocarte ni en canciones

FINAL [ C G/B Am Am/G F Em C Dm C ]
Versión 8 - Ojalá (Letra y acordes)
  "Ojalá"

  Silvio Rodriguez

Acordes:
  C*-Em*-A*-Dm*-Fm*-G*-C#m-Bm-Bm/A-F#-E-Esus-Dm-Dm/C-#1-A-Am-F-G
e)8---7--5--5---8---3---4--2---2---2--0--0---1---1---0--0-0--1-3
B)8---8--5--6---9---3---5--3---3---2--0--0---3---3---3--2-1--1-3
G)9---9--6--7---10--4---6--4---4---3--1--2---2---2---0--2-2--2-0
D)10--9--7--7---10--5---6--4---4---4--2--2---0---0---x--2-2--3-0
A)10--7--7--5---8---5---4--2---0---4--2--2---x---3---1--0-0--3-2
E)8---x--5--x---x---3---x--x---x---2--0--0---x---x---x--x-x--1-3

Intro:

e-------10------------9-------------8-----
B-----10--10--------10-10--------10--10---   Y se repite
G---10------10----10-----10----10------10-
D--0-------------0------------0-----------
A-----------------------------------------
E-----------------------------------------

1>Ojalá que las hojas no te toquen el cuerpo cuando caigan
[C*]para que no las puedas convertir en cris[intro]tal

2>[Em*]Ojalá que la [A*]lluvia deje de ser mi[Dm*]lagro 
que [C#m]baja por tu [Bm]cuerpo.[Bm/A]

3>[A*]Ojalá que la [G*]luna [F#]pueda salir sin [Bm]tí.[Bm/A][E][Esus]
[Dm]Oja[Dm/C]lá que la [#1]tierra no te [A]bese los [intro]pasos.

Ojalá se te acabe la mirada cons[C*]tante, 
la palabra precisa, la sonrisa per[Fm*]fecta.

Ojalá pase [G*]algo que te borre de [C]pronto 
una [E]luz cega[Am]dora, un dis[C]paro de [F]nieve

Ojalá por lo [G]menos que me lleve la [C]muerte
para [E]no verte [Am]tanto para [C]no verte [F]siempre
en todos los [intro]segundos 
en todos los vi[C*]siones
[Fm*]Ojalá que no [G*]pueda tocarte ni en can[intro]ciones.

1>Ojalá que la aurora nadé gritos que caigan 
en mi espalda.
Ojalá que tu nombre se le olvide a esa voz.

2>Ojalá las paredes no retengan tu ruido 
de camino cansado.

3>Ojalá que el deseo se vaya tras de tí
a tu viejo gobierno de difuntos y flores.

Ojalá se te acabe...

El material contenido en esta página es para exclusivo uso privado y con propósito meramente educativo, se prohibe su reproducción y uso con fines comerciales