El necio

Tabs, letra y acordes de 'El necio' por Silvio Rodriguez

Versiones disponibles: Tablatura para guitarra (TAB) - Tablatura para guitarra (TAB) - Tablatura para guitarra (TAB) - Letra y acordes - Letra y acordes

HOLA QUE TAL HERMANOS CUBANOS AQUI UN HUMILDE SERVIDOR LES SALUDA
ESTA ES MI TRANSCRIPCION ESPERO ESTE  BIEN,
ME ESFORCE PORQUE FUESE ASI...

INDICACIONES PARA UNA MEJOR INTERPRETACION:

los acordes -que me costaron mucho definirlos- estan sobre
la letra y bajo ella esta el tab que le corresponde...

 *  = Golpe fuerte (me copoie del anterior
^v^ = Rasgueo  abajo, arriba, abajo
^vx = Rasgueo  abajo, arriba, apagado
... = Demora un poquito mas
 () = No se escucha mucho o si quieres no lo toques
 /  = Este ya lo saben
 p  = Este tambien lo saben
 h  = Tambien lo saben!

DEBEN DARLE DE ALMA, SOLO ASI PODRAN ENTENER EL SENTIDO
DE LA ESCENCIA DE LO QUE ES EN SI EL SER DIFERENTEMENTE
SENTIMENTAL...
y otras cosas mas... estupidamente fascinante

                I
Para no hacer de mi icono pedazos
Para salvarme entre únicos e impares
Para cederme lugar en su parnaso
Para darme un rinconcito en sus altares.

               II
Me vienen a combidar a arrepentirme
Me vienen a convidar a que no pierda
Me vienen a convidar a indefinirme
Me vienen a convidar a tanta mierda.

       G           D      C
Yo no sé lo que es el destino
     G         D        C
Caminando fui lo  que fui
       G         D    C
Allá Dios que será divino
        Em     D    C
Yo me muero como viví
        Em     D    C
Yo me muero como viví
        Em     D    C  A#dim7
Yo me muero como viví.

     G/E       E5    Amadd11+/E     E5   G/E
E+---*3...------*0...---*5...------*0-v0-*3--+
B|---*3...------*5...---*4...----5-*5-v5-*3--|
G|---*4...----4-*4...---*5...---4--*4-v4-*4--|
D|-------------------------------------------|
A|-------------------------------------------|
E+--0-------0----------0-------0-------------+

        E5          G/E            A/E        E5
E+------*0-v0-*0-*3h5-*3-(3)-------*5h7-*5--*0--+
B|----0-*5-v5-*5-*3---*3-(3)-----5-*5---*5--*5--|
G|---4--*4-v4-*4-*4---*4-(4)----6--*6---*6--*4--|
D|----------------------------------------------|
A|----------------------------------------------|
E+--0--------------------------0----------------+

    Amadd11+/E             G/E
E+-----5----3p0-0--3/2-----3---2p0----------+
B|----4-(4)------4--------3-(3)----3-0------|
G|---5-------------------4------------0-----|
D|-------------------------------------4----|
A|------------------------------------------|
E+-0--------------------0-------------------+


                      I
     G/E                             A/E
Yo quiero seguir jugando alo perdido
e|------------------------------------------+
B|------------------------------------------+
G|------------------------------------6...--+
D|------------------------------------------+
A|------------------------------------------+
E|---0...---------------------------0-------+

   Amadd11+/E                      E5       G
Yo quiero ser a la zurda mas que diestro
e|--------------------5...---------------*0h3--3-------+
B|--------------------4...---------------*5h3-3---(0)--+
G|--------------------5...---------------*4--------0---+
D|-----------------------------------------------------+
A|-----------------------------------------------------+
E|---0...--------------------------0...----------------+


     C                              A7
Yo quiero hacer un congreso de lo unido
e|---------------------*3...--------------------------+
B|---------------------*5...----------------*2---(2)--+
G|---------------------*5...-----------0----*0---(0)--+
D|------------------------------------2-0h2-*2--------+
A|---3...----------------------------0----------------+
E|----------------------------------------------------+

    A#dim7                  Em
Yo quiero... fond... hijo nuestro
e|------------0-------2-----3-------3-*3-(3)--+
B|----------2-----(2)---(2)-----------*0-(0)--+
G|--------0-----------------------0---*0-(0)--+
D|------2-------------------------------------+
A|--1-----------------------------------------+
E|--------------------------0-----------------+


                       II
    G/E                         A/E
   Diran que pasó de moda la locura
e|--------------------*3...-----------*5h7-*5--*5---+
B|--------------------*3...---------5-*5---*5--*5---+
G|--------------------*4...-----------*6---*6--*6---+
D|--------------------------------------------------+
A|--------------------------------------------------+
E|---0...-----------------------0-------------------+

    Amadd11+/E                      E5           G
   Diran que la gente... mala... merece
e|-----------------------*5...-------------*0h3-*3-v3-*3--+
B|------------------4----*4...-------------*5h3-*3-v3-*3--+
G|---------------5-------*5...----------4--*4---*4-v4-*4--+
D|--------------------------------------------------------+
A|--------------------------------------------------------+
E|---0...---------------------------0---------------------+

     C                       A7
Mas yo partire soñando travesuras
e|---------------*5...------------------*0--+
B|---------------*5...--------------*2--*2--+
G|---------------*3...---------0----*0--*0--+
D|----------------------------2-0h2-*2------+
A|---3-----------------------0--------------+
E|------------------------------------------+

    A#dim7                   Em
  Acaso multiplicar panes y peces
e|----------------0----2-----3-----3-*3---+
B|-------------2----(2)--(2)---------*0---+
G|----------0--------------------0---*0---+
D|-------2--------------------------------+
A|--1-------------------------------------+
E|---------------------------0------------+


                  -CORO-

           G      D/F#          C
    Yo no sé   lo que es el destino
e|-------------*3------------------------------*0-v0-*0--+
B|-------------*0------3-----------------------*1-v1-*1--+
G|-----------0-*0-----2--------------0h2h0-----*0-v0-*0--+
D|----------0------------0---------2-------2...----------+
A|--------------------------0h2-3------------------------+
E|---0--2--3-------2-------------------------------------+

       G         D/F#       C
   Caminando fui lo    que fui
e|-------*3-v3--------------------------------+
B|-------*0-v0-------3------------------------+
G|-------*0-v0------2-----------0h2h0-0h2h0---+
D|--------------------0--------2-----2-----2--+
A|-----------------------0h2-3----------------+
E|-0h2-3----------2---------------------------+

        G          D/F#    C
  Allá Dios que será    divino
e|----------*3-v3----------------------------+
B|----------*0-v0---3------------------------+
G|----------*0-v0--2-----------0h2h0-3-2-0---+
D|-------------------0-------2------------2--+
A|---------------------0h2-3-----------------+
E|-0h2--3---------2--------------------------+

       Em         D         C         A7
  Yo...muero   como     viví                     --
e|--------*0---------2----------*0-v0------*0--+  +
B|--------*0--------3---------1-*1-v1------*2--+  +
G|-(0)----*0-------2--------0---*0-v0--0-0-*0--+  + BIS
D|--2-----*2------0----------2----------2------+  +
A|-------------0h2-----0h2-3----------0--------+  +
E|------0--------------------------------------+  +
                                                 --/
       Em         D         C      A#dim7
  Yo...muero   como    viví
e|--------*0--------2-------------------------+
B|--------*0-------3----------v1-------v1-*1--+
G|-(0)----*0------2--------0--v0----0--v0-*0--+
D|-(2)----*2-----0----------2--------2--------+
A|------------0h2-----0h2-3------2-1----------+
E|------0-------------------------------------+



     G/E                F#7/E         Fmaj7/E
E+-------*3-v3-*3-*3-------*2-*2-*2-----1-1-0---------+
B|-----3-*3-v3-*3-*3-----2-*2-*2-*2----1-----3-1------|
G|---4---*4-v4-*4-*4---3---*3-*3-*3---2--2------2-----|
D|------------------------------------------------0---|
A|----------------------------------------------------|
E+--0-----------------0--------------0-------------0--+


                         -FUGA-
                C                           X  Y  Z
   Yo me...  viví               Como viví               --
E+---------------------*0---*0-------------*0-*0-*0----+ +
B|----------------1----*1---*1-------------*0-*0-*0----| +
G|-----------------0---*0---*0-------------*4-*3-*2----| +BIS
D|-4-2-0------------2--*0h2-*2-------------*5-*4-*3----| +
A|-------4-2-0--3------*3---*3--------3-0--*5-*4-*3----| +
E+-------------3-----------------0-3----------------0--+ +
                                                          --/

     X    Y    Z                    G/E   Amadd11+/E G/E
    ^v^  ^v^  ^vx  Yo me...  viví
E+--*0---*0---*0---------------------*3...---*5...----*3...--+
B|--*0---*0---*0---------------------*3...---*4...----*3...--|
G|--*4---*3---*2---------------------*4...---*5...----*4...--|
D|--*5---*4---*3---4-2-0-------------------------------------|
A|--*5---*4---*3---------4-2-0-------------------------------|
E+---------------0-------------3-0--------------------*0...--+

  Amadd11+/E             G/E
E+-----5----3p0-0--3/2-----3---2p0----------+
B|----4-(4)------4--------3-(3)----3-0------|
G|---5-------------------4------------0-----|
D|-------------------------------------4----|
A|------------------------------------------|
E+-0--------------------0-------------------+

AQUI LO MISMO PERO CON ALGUNAS VARIACIONES
EN EL MODO DE TOCAR...(no es necesario que lo hagan como en el CD)

                  I
 G/E                                A/E
Dicen que me arrastraran por sobre rocas

Amadd11+/E                      E5    G
Cuando la Revolución se venga abajo

     C                         A7
Que machacaran mis manos y mi boca

  A#dim7                          Em
Que me arrancarán los ojos y el badajo

                 II
 G/E                          A/E
Será que la necedad pario conmigo

Amadd11+/E                        E5    G
La necedad de lo que hoy resulta necio

    C                       A7
La necedad de asumir al enemigo

   A#dim7                      Em
La necedad de vivir sin tener precio.


                 -CORO-

           G      D/F#          C
    Yo no sé   lo que es el destino
e|-------------*3------------------------------*0-v0-*0--+
B|-------------*0------3-----------------------*1-v1-*1--+
G|-----------0-*0-----2--------------0h2h0-----*0-v0-*0--+
D|----------0------------0---------2-------2...----------+
A|--------------------------0h2-3------------------------+
E|---0--2--3-------2-------------------------------------+

       G         D/F#       C
   Caminando fui lo    que fui
e|-------*3-v3--------------------------------+
B|-------*0-v0-------3------------------------+
G|-------*0-v0------2-----------0h2h0-0h2h0---+
D|--------------------0--------2-----2-----2--+
A|-----------------------0h2-3----------------+
E|-0h2-3----------2---------------------------+

        G          D/F#    C
  Allá Dios que será    divino
e|----------*3-v3----------------------------+
B|----------*0-v0---3------------------------+
G|----------*0-v0--2-----------0h2h0-3-2-0---+
D|-------------------0-------2------------2--+
A|---------------------0h2-3-----------------+
E|-0h2--3---------2--------------------------+

       Em         D         C         A7
  Yo...muero   como     viví                     --
e|--------*0---------2----------*0-v0------*0--+  +
B|--------*0--------3---------1-*1-v1------*2--+  +
G|-(0)----*0-------2--------0---*0-v0--0-0-*0--+  + BIS
D|--2-----*2------0----------2----------2------+  +
A|-------------0h2-----0h2-3----------0--------+  +
E|------0--------------------------------------+  +
                                                 --/
       Em         D         C      A#dim7
  Yo...muero   como    viví
e|--------*0--------2-------------------------+
B|--------*0-------3----------v1-------v1-*1--+
G|-(0)----*0------2--------0--v0----0--v0-*0--+
D|-(2)----*2-----0----------2--------2--------+
A|------------0h2-----0h2-3------2-1----------+
E|------0-------------------------------------+


     G/E                F#7/E         Fmaj7/E
E+-------*3-v3-*3-*3-------*2-*2-*2-----1-1-0---------+
B|-----3-*3-v3-*3-*3-----2-*2-*2-*2----1-----3-1------|
G|---4---*4-v4-*4-*4---3---*3-*3-*3---2--2------2-----|
D|------------------------------------------------0---|
A|----------------------------------------------------|
E+--0-----------------0--------------0-------------0--+


                   G/E
   Yo me...   viví
E+------------------*3...---+
B|------------------*3...---|
G|------------------*4...---|FIN
D|-4-2-0--------------------|
A|-------4-2-0--------------|
E+-------------3-0----------+



ACORDES PENDEJOS:

   G/E  E5 Amadd11+/E A/E A#dim7 F#7/E
e|--3---0------5-------5----X------2--+
B|--3---5------4-------5----2------2--+
G|--4---4------5-------6----0------3--+
D|--X---X------X-------X----2------X--+
A|--X---X------X-------X----1------X--+
E|--0---0------0-------0----X------0--+



    Fmaj7/E G6/E F#7add11/E Fmaj7add11+/E
e|----1-------0-------0------------0----------+
B|----1-------0-------0------------0----------+
G|----2-------4-------3------------2----------+
D|----X-------5-------4------------3----------+
A|----X-------5-------4------------3----------+
E|----0-------0-------0------------0----------+

GRACIAS POR VOTAR...
VI A SILVIO EN SU CONCIERTO AQUI EN LIMA-PERU
Y FUE FENOMENAL..........
DUDAS, AMENAZAS DE MUERTE A....  FAZLUZAM@HOTMAIL.COM

                 _VIVA LA TROVA Y LA REVOLUCION_
Versión 2 - El necio (Tablatura para guitarra (TAB))
Perdón, la versión anterior estaba sin terminar...

Intro:
E  +--3---0---5---0-0-3--3---0-0-2/4/2-2-2 2--------5~7-5-5-+
B  |--3---2---4---0-0-3--3---0-0-2/4/2-2-2-2------5-----5-5-|
G  |--4---4---5---4-4-4--4---4-4-4/6/4-4-4-4----6-------6-6-|
D  |--------------------------------------------------------|
A  |--------------------------------------------------------|
E  +0---0---0---0----------0------------------0-------------+


E  +5-5--------5-3~0-----3/2-------3-2~0-----------0--------+
B  |5-5------4-------4-----------3-------3-0-------0--------|
G  |6-6----5-----------5-------4-------------0-----0--------|
D  |-------------------------------------------4------------|
A  |--------------------------------------------------------|
E  +-----0-------------------0-------------------0----------+


                             A/E
Para no hacer de mi icono pedazos
                    A4(d)/E       G/E
Para salvarme entre únicos   e impares
 C                           A7
Para cederme lugar en su parnaso
 Bbº                               Em
Para darme un rinconcito en sus altares
Me vienen a combidar a arrepentirme
Me vienen a convidar a que no pierda
Me vienen a convidar a indefinirme
Me vienen a convidar a tanta mierda.
       G           D      C
Yo no sé lo que es el destino
     G         D        C
Caminando fui lo  que fui
       G         D    C
Allá Dios que será divino
        Em     D    C
Yo me muero como viví
        Em     D    C
Yo me muero como viví
        Em     D    C  Bbº
Yo me muero como viví.

Arreglo intro.

Yo quiero seguir jugando alo perdido
Yo quiero ser a la zurda mas que diestro
                                    A7 (IV 0~2 III 0)
Yo quiero hacer un congreso de lo unido
Yo quiero rezar a fondo un hijo nuestro.

Diran que pasó de moda la locura
Diran que la gente es mala y no merece
Mas yo partire soñando travesuras
Acaso multiplicar panes y peces
(VI 0~2 3)  G           D/F# (V 0~2 3)  C (III 0~2~0 IV 2)
     Yo no sé lo que es el          destino
     G         D/F#       C (Anterior x 2)
Caminando fui lo    que fui
       G        D/F#    C  (III 2~0 2/4 2~0 IV 2)
Allá Dios que será   divino
        Em (V 0~2 IV 0)    D     C A7
Yo me muero             como  viví
        Em (V 0~2 IV 0)    D     C A7
Yo me muero             como  viví
        Em (V 0~2 IV 0)    D     C (V 3 2 1) Bbº
Yo me muero             como  viví

E  +------3-3--3--------2 2--2--------1-0-------------------+
B  |----3-3-3--3------2-2-2--2------1-----3-1---------------|
G  |--4---4-4--4----3---3-3--3----2-----------2-------------|
D  |--------------------------------------------2-0-2-------|
A  |--------------------------------------------------------|
E  +0-------------0-------------0-------------------0-------+

Esta parte es cantada sobre este juego de bajos:

    Yo me muero como viví.... Como viví

E  +----------------0-------------------0-0-0---------------+
B  |----------------1-------------------0-0-0---------------|
G  |----------------0-------0-----------4-3-2---------------|
D  |4-2-------------2---0-2-------------5-4-3---------------|
A  |----5-3-2-----3-3--------------3-0--5-4-3 --------------|
E  +----------5-3--------------0-3------0-0-0-0-------------+

    Yo me muero como viví.... Como viví

E  +----------------0-------------------0-0-0---------------+
B  |----------------1-------------------0-0-0---------------|
G  |----------------0-------0-----------4-3-2---------------|
D  |4-2-------------2---0-2-------------5-4-3---------------|
A  |----5-3-2-----3-3--------------3-0--5-4-3 --------------|
E  +----------5-3--------------0-3------0-0-0-0-------------+

                     Yo me muero com viví
E  +0-0-0 -0-0-0-0-------------------3----------------------+
B  |0-0-0--0-0-0-0-------------------3----------------------|
G  |4-4-4--3-3-3-3-------------------4----------------------|
D  |5-5 5--4-4-4-4---4-2------------------------------------|
A  |5-5-5--4-4-4-4-------5-3-2------------------------------|
E  +0-0-0--0-0-0-0-0-----------5-3-0------------------------+


Dicen que me arrastraran por sobre rocas
Cuando la Revolución se venga abajo
Que machacaran mis manos y mi boca
Que me arrancarán los ojos y el badajo
Será que la necedad pario conmigo
La necedad de lo que hoy resulta necio
La necedad de asumir al enemigo
La necedad de vivir sin tener precio.

Yo no sé lo que es el destino
Caminando fui loque fui
Allá Dios que será divino
Yo me muero como viví

~:Ligado
/:Arrastrado
            654321

A/E:        0XX655
A4(d)/E:    0XX545
G/E:        0XX433
Bbº:        X12020
Versión 3 - El necio (Tablatura para guitarra (TAB))
Esta versión se escucha bien en tono normal o ½ tono abajo
Disculpen la X y la Z pero no se como se llaman los acordes
Si alguien sabe mandelos a mi correo asi como cualquier
Otra trova que les haga falta,
Quiero dedicar este trabajo a todos los necios del cch que como
Yo luchan con su musica por un mejor lugar sean felices
                   M.M.
este es el bajeo de la introduccion solo me falta poner un
arreglo en La7/La# pero lo envio pronto
(intro)
1|-----------------------------------------------
2|----3---------------------5--------------------
3|----4---------------------6--------------------
4|-------2~4-2-0--------------2~4-2-0------------
5|---------------4~2-0----------------4~2-0------
6|--0------------------~3-0-----------------~3---

1|-----------------------------------------------
2|---4---------------------3-2-1-----3-0~3-3-----
3|---5---------------------4-3-2---4-------4-----
4|------2~4-2-0----------------------------------
5|--------------4~2-0----------------------------
6|-0------------------~3-0-------0---------------

1|-----------------------------------------------
2|-----5-0~5-5-----4-0~4-4-----3-0~3-3-----------
3|---6-------6---5-------5---4-------4-----------
4|-----------------------------------------------
5|-----------------------------------------------
6|-0-----------0-----------0---------------------
       comienza a cantar a capela
para no hacer de mi icono pedazos
para salvarme entre unicos e impares
para cederme lugar en su parnaso
para darme un rinconcito en sus altares

(A)
    VI-0             Sid              VI-0  X
me vienen a convidar a arrepentirme
    VI-0              Z               VI-0  Sid
me vienen a convidar a que no pierda
    V-3              Do             V-0  IV-3 III-0 IV-0~3 La7
me vienen a convidar a indefinirme
    La7/La#              VI-0        Sid
me vienen a convidar a tanta mierda

(B)
        SOL         RE           DO
yo no se lo que es el destino
       SOL        RE         DO
caminando fui lo que fui
          SOL        RE         DO
alla dios que sera divino
       MIm     RE     DO
yo me muero como vivi
         MIm      RE      DO
yo me muero como vivi
       MIm      RE      DO
yo me muero como vivi
La7/La# VI-0 Sid VI-0 X VI-0 Z VI-0 Sid VI-0 X [1]
(1)
1|-------5-3-0-----3~2-------3-2-0-------
2|-----4-------5-----------0-------3-----
3|---5-----------0-------0-----------0---
4|-------------------------------------4-
5|---------------------------------------
6|-0-------------------0-----------------



(A)
yo quiero seguir jugando a lo perdido
yo quiero ser a la zurda mas que a diestro
yo quiero hacer un congreso de lo unido
yo quiero rezar a fondo un hijo nuestro
(A)
diran que paso de moda la locura
diran que la gente es mala y no merece
mas yo partire soñando travesuras
acaso multiplicar panes y peces

(B)
yo no se lo que(...)
       MIm      RE      DO La7/La# VI-0 Sid VI-0 X (2)
yo me muero como vivi
(2)
1|-------5-3-0----------
2|-----4-------3-0------
3|---5-------------0----
4|-------------------4--
5|----------------------
6|-0--------------------
Aquí se canta conforme los bajos
1|------------------------------------------
2|-----------------------------1------------
3|---------------------0-------0------------
4|---4-2-0-----------2---2-0~2--------------
5|---------4-2-0---3-----------------3-0----
6|-0-------------3---------------0~3-------- La9 La Lam
  Yo me muero como vivi..como vivi
1|------------------------------------------
2|-----------------------------1------------
3|---------------------0-------0------------
4|---4-2-0-----------2---2-0~2--------------
5|---------4-2-0---3-----------------3-0-
6|-0-------------3---------------0~3-----
  yo me muero como vivi.. como vivi

La9 La LamVI-0 sid sold dod
(3)
1|----------------------
2|----------------------
3|----------------------
4|---4-2-0--------------
5|---------4-2-0--------
6|-0-------------3-0---- Sid VI-0 X (1)
  yo me muero como vivi
(A)
 dicen que me arrastraran por sobre rocas
cuando la revolucion se venga abajo
que machacaran mis mano y mi boca
que me arrancaranlos ojos y el badajo

(A)
Sera que la necedad pareo conmigo
La necedad de lo que hoy resulta necio
La necedad de asumir al enemigo
La necedad de vivir sin tener precio

(B)
Yo no se lo que es el destino(...)
(3)                   Sid
Yo me muero como vivi


X____________0XX65X
Z____________0XX54X
Sid__________0XX43X
Sold_________0XX32X
Dod__________0XX21X
La7/La#______012030
La9__________002230
Versión 4 - El necio (Letra y acordes)
    MIm7                       LA/MI
A)      Para no hacer de mi ícono pedazos
     SI7/MI                        MIm7
      Para salvarme entre únicos e impares
    DO                          LA7
      Para cederme lugar en su Parnaso
   LA#d                               MIm
      Para darme un rinconcito en sus altares

A)      Me vienen a convidar a arrepentirme
      Me vienen a convidar a que no pierda
      Me vienen a convidar a indefinirme
       Me vienen a convidar a tanta mierda

         SOL        RE/FA#  DO         SOL     RE/FA#   DO
B) Yo no sé lo que es el destino / Caminando fuí lo que fui
        SOL         RE   DO          MIm      RE   DO (LAm9)
   Allá Dios, que será divino / Yo me muero como viví
         MIm     RE  DO(Lam9)      MIm     RE   DO  LA#d
   Yo me muero como viví  /  Yo me muero como viví
MIm7-LA9/MI-SI7/MI-MIm7-LA/MI-LAm/MI-MIm7

A)      Yo quiero seguir jugando a lo perdido
      Yo quiero ser ala zurda más que diestro
      Yo quiero hacer un congreso del unido
      Yo quiero rezar a fondo un hijo nuestro
A)      Dirán que pasó de moda la locura
      Dirán que la gente es mala y no merece
      Mas yo partiré soñando travesuras
      (Acaso multiplicar panes y peces)

B) Yo no sé lo que es el destino [...]
(Mim7-FA#(m)/MI-FA/MI)
MIm7               DO           LAm (LAm7-LAm6-LAm6b)
Yo me muero como viví... como viví...
MIm7               DO         LAm (LAm7-LAm6-LAm6b)
Yo me muero como viví...como viví
(Lam7/MI-Lam6/MI-LAm6b/MI)
                   MIm7
Yo me muero como viví...
(LA/MI-MIm7-LAm-MIm7)

A)      Dicen que me arrastrarán por sobre rocas
      Cuando la revolución se venga abajo
      Que machacarán mis manos y mi boca
      Que me arrancarán los ojos y el badajo
A)      Será que LA necedad parió conmigo
      La necedad de lo que hoy resulta necio
      La necedad de asumir al enemigo
      La necedad de vivir sin tener precio

B) Yo no sé lo que es el destino [...] (Mim7-Fa#m/MI-FA/MI)
                  MIm7
Yo me muero como viví...
Versión 5 - El necio (Letra y acordes)
 A.- Para no hacer de mi ícono pedazos,
para salvarme entre únicos e impares,
para cederme un lugar en su Parnaso,
para darme un rinconcito en sus altares.

A.- Me vienen a convidar a arrepentirme,
me vienen a convidar a que no pierda,
mi vienen a convidar a indefinirme,
me vienen a convidar a tanta mierda.

          SOL          RE      DO
B.- Yo no se lo que es el destino,
    SOL       RE      DO
caminando fui lo que fui.
      SOL        RE   DO
Allá Dios, que será divino.
          MIm    RE    DO
/: Yo me muero como viví, :/
       MIm    RE    DO - LA7/Sib
Yo me muero como viví .

(1) : SOL/MI - Mim - FA7*/MI - (MI)-SOL/MI
      (MI)-SOL/MI (I-5_3) - LA*/MI (I-7_5)
      MI4*   : B-III-II-I-5-3_0-II-4-I-0-3_2
      SOL/MI : B-III-II-I-3-2_0-II-3-2-III-0-IV-4-VI-0

   MIm                               LA*/MI
A.- Yo quiero seguir jugando a lo perdido,
FA7*/MI                        (MI) SOL/MI
yo quiero ser a la zurda más que diestro,
    DO                        LA7 (IV-0_2)
yo quiero hacer un congreso del unido,
    LA7/Sib                     MIm
yo quiero rezar a fondo un 'hijo nuestro'.

A.- Dirán que pasó de moda la locura,
dirán que la gente es mala y no merece,
más yo seguiré soñando travesuras
(acaso multiplicar panes y peces).
         SOL     RE/FA#(IV-0) (V-0_2) DO (IV-2-III-0_2_0-IV-2)
B.- Yo no se lo que es el destino,
    SOL         RE/FA#     DO
caminando fui lo que fui.
      SOL      RE/FA#   DO (IV-2-III-0_2_0-3-2_0-IV-2)
Allá Dios, que será divino.
        Mim [IV-2_3] RE [V-0_2] DO - LA
/: Yo me muero como viví, :/
       MIm    RE   DO - LA7/Sib
Yo me muero como viví .

SOL/MI - RE7  - MIm : B-III-II-I-1-0-II-3_0-III-2-0-IV-2-VI-0

       (IV-3-2-0-V-3-2-0-VI-3) RE
C.- /: Yo  me  muero  como   viví,
(VI-0-3-IV-0-V-2) SOL7+ - FA#7+ - FA7+
como viví :/
[IV-3-2-0-V-3-2-0-VI-3]   Mim [1]
Yo   me   muero   como   viví .

A.- Dicen que me arrastrarán po sobre rocas
cuando la Revolución se venga abajo,
que machacarán mis manos y mi boca,
que me arrancarán los ojos y el badajo.
A.- Será que la necedad parió conmigo,
la necedad de lo que hoy resulta necio:
la necedad de asumir al enemigo,
la necedad de vivir sin tener precio.

B.- Yo no se lo que es el destino,
caminando fui lo que fui.
Allá Dios, que será divino.
Yo me muero como viví.

 Final : [IV-3-2-0-V-3-2-0-VI-3]  SOL/MI
         Yo   me   muero   como   viví.

El material contenido en esta página es para exclusivo uso privado y con propósito meramente educativo, se prohibe su reproducción y uso con fines comerciales