la Maza

Tabs, letra y acordes de 'la Maza' por Silvio Rodriguez

Versiones disponibles: Tablatura para guitarra (TAB) - Tablatura para guitarra (TAB) - Tablatura para guitarra (TAB) - Tablatura para guitarra (TAB) - Letra y acordes - Letra y acordes - Letra y acordes

  Am7           E/G#     Gm6          D9/F#  Fmaj7
E--5-------------4--------3------------2-----1-----------------
A--------------------------------------------------------------
D---------7-6-5-----------------5-4-3----------------3-2-1-----
G----5--------------4-------3------------2------2--------------
B----5----------------5-----3--------------3----1--------------
e----0----------------0-----0--------------0-------------------

  C/E                   D/F#      E        E7(-9)
E--0---------------------2---------0----------------
A--------------------------------------------2------
D----2---------------------0-----------------3------
G------2-------------2--------2------1-------1------
B--------0-----2-3p0----------3--------0-----3------
e----------1p0----------------2----------1p0--------

  Am7           E/G#     Gm6          D9/F#  Fmaj7
E--5-------------4--------3------------2-----1-----------------
A--------------------------------------------------------------
D---------7-6-5-----------------5-4-3----------------3-2-1-----
G----5--------------4-------3------------2------2--------------
B----5----------------5-----3--------------3----1--------------
e----0----------------0-----0--------------0-------------------

  C/E                   D/F#      E     E7(-9)   E     E7(-9)
E--0---------------------2---------0-------------0--------------
A--------------------------------------------2--------------2---
D----2---------------------0-----------------3--------------3---
G------2-------------2--------2------1-------1-----1--------1---
B--------0-----2-3p0----------3--------0-----3-------0------3---
e----------1p0----------------2----------1p0-----------1p0------
  Am                     G    F  E      E7(-9)  Am7
E-------------------------3---1--0--------------5-------------5----------
A-0-----------0--0--------2---3------------2-----------------------------
D---2---------2----2------0---3------------3-----------------------------
G-----2-------2------2----0---2----1-------1------5-------5-----5------5-
B-------------1--------1--3---1------0-----3--------5---5---------5--5---
e---------1-0-------------3---1--------1p0------------0-------------0----

Am                    E/G#
Si no creyera en la locura
Gm6                  D9/F#
de la garganta del sinsonte
Fmaj7                     C/E
si no creyera que en el monte
D/F#                      E E7(-9)
se esconde el trino y la pavura

Am                    E/G#
Si no creyera en la balanza
Gm6                  D9/F#
en la razón del equilibrio
Fmaj7                 C/E
si no creyera en el delirio
D/F#                    E E7(-9)
si no creyera en la esperanza

Am                       E/G#
Si no creyera en lo que agencio
Gm6                  D9/F#
si no creyera en el camino
Fmaj7                C/E
si no creyera en el sonido
D/F#           E      E7(-9)
si no creyera en mi silencio
 E        E7(-9)
qué cosa fuera
 E        E7(-9)
que cosa fuera
    Am
la maza sin cantera
       G    F         E         E7(-9)  E
un amasijo hecho de cuerdas y tendones
       E7(-9)      Am
un revoltijo de carne con madera
          G     F     E           E7(-9)  E
un instrumento sin mejores resplandores
        E7(-9)     Am
qué lucecitas montadas para escena
           G     F   E            Fdim Ddim
qué cosa fuera, corazón, qué cosa fuera
         Fdim     Am
qué cosa fuera la maza sin cantera
         G     F       E           Fdim Ddim
un testaferro del traidor de los aplausos
        Fdim     Am
un servidor de pasado en copa nueva
       G  F        E          Fdim Ddim
un eternizador de dioses del ocaso
         Fdim       Am
júbilo hervido con trapo y lentejuela
           G     F   E            Fdim Ddim
qué cosa fuera, corazón, qué cosa fuera
         Fdim     Am
qué cosa fuera la maza sin cantera

G F E Fdim Ddim Fdim Am Dm Am G F Fdim Fdim7 Am


Am                      E/G#
si no creyera en lo más duro
Gm6                  D9/F#
si no creyera en el deseo
Fmaj7                    C/E
si no creyera en lo que creo
D/F#                   E
si no creyera en algo puro

Am                      E/G#
Si no creyera en cada herida
Gm6                     D9/F#
si no creyera en la que ronde
Fmaj7                     C/E
si no creyera en lo que esconde
D/F#                   E E7(-9)
hacerse hermano de la vida
Am                      E/G#
Si no creyera en quien me escucha
Gm6                  D9/F#
si no creyera en lo que duele
Fmaj7                    C/E
si no creyera en lo que quede
D/F#           E         Fdim
si no creyera en lo que lucha
E         Fdim
qué cosa fuera
Ddim      Fdim
que cosa fuera
    Am
la maza sin cantera
       G    F         E         Fdim
un amasijo hecho de cuerdas y tendones
Ddim   Fdim      Am          Dm7 Am
un revoltijo de carne con madera
          G     F     E          Fdim  Ddim
un instrumento sin mejores resplandores
        Fdim     Am           Dm7  Am
qué lucecitas montadas para escena
           G     F   E            Fdim Ddim
qué cosa fuera, corazón, qué cosa fuera
         Fdim     Am          Dm7 Am
qué cosa fuera la maza sin cantera
         G     F       E           Fdim Ddim
un testaferro del traidor de los aplausos
        Fdim     Am             Dm7 Am
un servidor de pasado en copa nueva
           G     F   E            Fdim Ddim
qué cosa fuera, corazón, qué cosa fuera
         Fdim     Am
qué cosa fuera la maza sin cantera
       G  F        E          Fdim Ddim
un eternizador de dioses del ocaso
         Fdim       Am
júbilo hervido con trapo y lentejuela
           G     F   E            Fdim Ddim
qué cosa fuera, corazón, qué cosa fuera
         Fdim     Am          Dm7 Am
qué cosa fuera la maza sin cantera
           G     F   E            Fdim Ddim
qué cosa fuera, corazón, qué cosa fuera
         Fdim     Am          Dm7 Am
qué cosa fuera la maza sin cantera

G F E E7(-9) Am


E A D G B E
2 0 0 2 3 0  - D9/F#
0 2 3 1 3 0  - E7(-9) (E7b9)
4 X X 4 5 0  - E/G#
3 X 0 3 3 3  - Gm6
X X 3 2 1 0  - Fmaj
X X 2 0 1 0  - C/E
1 2 3 1 3 1  - Fdim Cejilla 1° traste
X 5 6 4 6 4  - Ddim Cejilla 4° traste
X X 3 4 3 4  - Fdim7
Versión 2 - la Maza (Tablatura para guitarra (TAB))
Saludos banda...

El intro va más o menos así... es cosa de echarle mucho sentimiento y
agarrarle la onda a la canción



 Am               G#*         G*               F#D (suelten LA primera)
|---0-----0------|------0----|----------------|-------------0----------|
|-------1--------|---5-----5-|---3-----3------|-------3-----------3----|
|-----2-----2-1--|-----------|-------0--------|---(2)---(2)---(2)---2--|
|----------------|-----------|-----4-----4-2--|------------------------|
|-0--------------|-----------|----------------|------------------------|
|----------------|-4---------|-3--------------|-2----------------------|


 F                    C                     F#D             E        E7*
|-------------------|---------1-0---------|-------------2-|---------1---|
|-------1-----1-----|-------------1-------|-------3-----3-|-------0---3-|
|---(2)-----2-------|-------0-------0-----|---(2)---(2)-2-|-----1-----1-|
|---------3-----3-2-|-----2-----------2---|-------------0-|---2-------3-|
|-------------------|---3---------------3-|---------------|-------------|
|-1-----------------|-0-------------------|-2-------------|-0-----------|


 Am               G#*         G*               F#D (suelten LA primera)
|---0-----0------|------0----|----------------|-------------0----------|
|-------1--------|---5-----5-|---3-----3------|-------3-----------3----|
|-----2-----2-1--|-----------|-------0--------|---(2)---(2)---(2)---2--|
|----------------|-----------|-----4-----4-2--|------------------------|
|-0--------------|-----------|----------------|------------------------|
|----------------|-4---------|-3--------------|-2----------------------|


 F                    C                     F#D
|--------------------|---------1-0---------|-------------2-|
|-------1-----1------|-------------1-------|-------3-----3-|
|---(2)-----2--------|-------0-------0-----|---(2)---(2)-2-|
|---------3-----3-2--|-----2-----------2---|-------------0-|
|--------------------|---3---------------3-|---------------|
|-1------------------|-0-------------------|-2-------------|...


  E        E7*    2x
||----------1-----||
||o-------0---3--o||
||------1-----1---||
||----2-------3---||
||o--------------o||
||--0-------------||


ojo aquí..

 Am              Am             G     F       E      E7*
|---------1-0---|-------------0-------------|---------1p0---|
|-------1-----1-|-------1-----------0-----1-|-------0-----3-|
|-----2-------2-|-----2---(2)-----0-----2---|-----1---------|
|---2-----------|---2-----------------------|---2-----------|
|-0-------------|-0-------------------------|---------------|
|---------------|---------------3-----1-----|-0-------------|

  Am                      4x
||--------0-----0-----0---||
||o---(x)---(x)---(x)----o||
||------------------------||
||------------------------||
||o-0--------------------o||
||------------------------||


De aquí en adelante se utiliza el mismo punteado, con leves variaciones...
les estoy dando las figuras que usen, solo escuchen la rola


Am                    G#*
Si no creyera en la locura
G*                    F#D
de la garganta del sinzonte
F                       C
si no creyera que en el monte
F#D                      E - E7*
se esconde el trino y la pavura


Am                    G#*
Si no creyera en la balanza
G*                    F#D
o en la razón del equilibrio
F                      C
si no creyera en el delirio
F#D                      E - E7*
si no creyera en la esperanza


(Ahora el punteado en la parte final del compás se marca el acorde)

Am                        G#*
Si no creyera en lo que agencio
G*                    F#D
si no creyera en mi camino
F                      C (punteado totalmente)
si no creyera en mi sonido
F#D                       E - E7*
si no creyera... en mi silencio

            E - E7*
¿Qué cosa fuera?..
            E - E7* Am
¿Qué cosa fuera la maza sin cantera?

Am     G    F         E     -    E7*
Un amasijo hecho de cuerdas y tendones
E   -   E7*      Am
Un revoltijo de carne con madera
Am        G    F      E     -     E7*
Un instrumento sin mejores resplandores
E   -   E7*      Am
Que lucecitas montadas para escena



Aquí empiezan los acordes pesados..

            G   F    E               E7*  E7+9
¿Qué cosa fuera corazón, que cosa fuera?..
            E       Am          Am*   Am
¿Qué cosa fuera la maza sin cantera?

         G     F       E            E7*  E7+9
Un testaferro del traidor de los aplausos
        E         Am           Am*   Am
Un servidor de pasado en copa nueva
       G     F       E          E7*  E7+9
Un eternizador de dioses del ocaso
           E        Am           Am*   Am
Júbilo hervido con trapo y lentejuela


            G   F    E               E7*  E7+9
¿Qué cosa fuera corazón, que cosa fuera?..
            E       Am          Am*   Am
¿Qué cosa fuera la maza sin cantera?


            G   F    E               E7*  E7+9
¿Qué cosa fuera corazón, que cosa fuera?..
            E       Am          Am*   Am
¿Qué cosa fuera la maza sin cantera?


 G  F  E  E7* E7+9  E  Am-Dm-Am
 G  F  E7+9  E - A


(en esta parte empieza el pianito, de pocamadre por cierto...)


Si no creyera en lo más duro
si no creyera en el deseo
si no creyera en lo que creo
si no creyera en algo puro

Si no creyera en cada herida
si no creyera en la que ronde
si no creyera en lo que esconde
hacerse hermano de la vida (aquí empieza la guitarra otra vez...)

Si no creyera en quién me escucha
si no creyera en lo que duele
si no creyera en lo que quede
si no creyera en lo que lucha


(Esto ya se lo saben...)

¿Qué cosa fuera?..
¿Qué cosa fuera la maza sin cantera?

Un amasijo hecho de cuerdas y tendones
Un revoltijo de carne con madera
Un instrumento sin mejores resplandores
Que lucecitas montadas para escena

¿Qué cosa fuera corazón, que cosa fuera?..
¿Qué cosa fuera la maza sin cantera?

Un testaferro del traidor de los aplausos
Un servidor de pasado en copa nueva

¿Qué cosa fuera corazón, que cosa fuera?..
¿Qué cosa fuera la maza sin cantera?

Un eternizador de dioses del ocaso
Júbilo hervido con trapo y lentejuela

¿Qué cosa fuera corazón, que cosa fuera?..
¿Qué cosa fuera la maza sin cantera?

¿Qué cosa fuera corazón, que cosa fuera?..
¿Qué cosa fuera la maza sin cantera?


-[Acordes]-----------------------------------------------------------------
La mera neta no me se los nombres de los acordes, y tampoco creo que tengan
mucha relevancia, así que me los inventé..


            E A D G B E

Am          0 0 2 2 1 0
Am*         0 0 2 2 1 1
G#*         4 x 0 4 5 0
G           3 2 0 0 0 1
G*          3 x 4 0 3 0
F           1 3 3 2 1 1
F#D         2 x 0 2 3 2
E           0 2 2 1 0 0
E7*         0 2 3 1 3 0
E7+9        0 2 3 1 3 1
C           0 3 2 0 1 0 - Bajeo en la sexta (Mi)
Dm          x 0 0 2 3 1


---------------------------------------------------------------------------
arathael@gmail.com | http://www30.websamba.com/arathael
Versión 3 - la Maza (Tablatura para guitarra (TAB))
Esta es mi segunda aportación, espero les agrade
La base del intro estaba bien, pero tenía errores de arpegio. Solo
escuchenla bien y verán que está correcto.
********************************************************************
lam         500550          RE9/FA#  200230      RE/FA  200232
mi/lam      400450          Fa       133211      MI     022100
solm        300330          Do/Mi    002201      MI7    023130

SOL         355433          LAm      002210      Edism  022130

                                  INTRO

         LAm           Mi/lam         SOLm       RE/FA#          FA


E|----5------------4-------------3-------------2-----------1---------|
A|-------------------------------------------------------------------|
D|----------7-6-5----------------------5-4-3--------------------3-2-1|
G|------5------------4-------4-----3--------------2---2------2-------|
B|-------5-------------5---5--------3--------------3-3---------1-----|
e|-----------------------0--------------------------0----------------|


        DO/MI             D/F#         MI         MI7


E|--0---------------------2--------0---------------------|
A|-------------------------------------------------------|
D|----2-------------2-------0---0----2-------------------|
G|------2---------2----------2--2------1-------1---------|
B|--------0-----0-------------3-3--------------3---------|
e|----------1p0-----------------2----------1p0-----------|


         LAm           Mi/lam         SOLm       RE/FA#          FA


E|----5------------4-------------3-------------2-----------1---------|
A|-------------------------------------------------------------------|
D|----------7-6-5----------------------5-4-3--------------------3-2-1|
G|------5------------4-------4-----3--------------2---2------2-------|
B|-------5-------------5---5--------3--------------3-3---------1-----|
e|-----------------------0--------------------------0----------------|


        DO/MI             D/F#          MI7            MI7


E|--0---------------------2--------0----------------0-------------|
A|----------------------------------------------------------------|
D|----2-------------2-------0---0----2----------------2-----------|
G|------2---------2----------2--2------1------1---------1-----1---|
B|--------0-----0-------------3-3-------------3---------------3---|
e|----------1p0-----------------2---------1p0-------------1p0-----|


RIFF 1: (ESTE SE UTILIZA AL FINAL DEL INTRO)

       LAm       (bajeos) SOL  FA   MI      MI7

E|-------------------------3----1----0--------------5-------5-------|
A|--0-----------0---------------------------------------------------|
D|----2---------------------------------2---------------------------|
G|------2----------2----------------------1-----1-----5---5---5---5-|
B|-----------1-------1--------------------------3------5-5-----5-5--|
e|--------1p0----------0--------------------1p0---------0-------0---|



SE TOCA IGUAL QUE EL INTRO PERO SIN LOS BAJOS EN LAS NOTAS QUE
VAN LOS BAJOS AUMENTAS UN TIEMPO

        Am           E/A
     Si no creyera en la locura
         Gm            D9/F#
     de la garganta del sinsonte
          F              C/E
     si no creyera que en el monte
        D/F               E E7
     se esconde el trino y la pavura.


se repite lo anterior

Si no creyera en la balanza
en la razón del equilibrio
si no creyera en el delirio
si no creyera en la esperanza.

Si no creyera en lo que agencio
si no creyera en mi camino
si no creyera en mi sonido
si no creyera en mi silencio.

CORO:

       Edim               Edim
 Que cosa fuera      que cosa fuera

E|--0------------------0-------------|
A|-----------------------------------|
D|----2------------------2-----------|
G|------1----1-------------1-----1---|
B|-----------3-------------------3---|
e|--------1p0----------------1p0-----|

          A            (BAJEOS G  F  E  en LA 6ta cuerda)
la maza sin cantera    un amasijo   hecho

E|-----------------------------3---1---0-|
A|------0-------------0------------------|
D|--------2------------------------------|
G|----------2----2------2----------------|
B|---------------1--------1--------------|
e|------------1p0-----------0------------|

SE REPITEN LOS MISMO ARPEGIOS

de cuerdas y tendones
un revoltijo de carne con madera

EMPIEZAN LOS MISMOS ARPEGIOS PERO CON RASGEO A LA VEZ

un instrumento sin mejores resplandores
que lucecitas montadas para escena
que cosa fuera -corazon- que cosa fuera
que cosa fuera la maza sin cantera
un testaferro del traidor de los aplausos
un servidor de pasado en copa nueva
un eternizador de dioses del ocaso
jubilo hervido con trapo y lentejuela
que cosa fuera -corazon- que cosa fuera
que cosa fuera la maza sin cantera
que cosa fuera -corazon- que cosa fuera
que cosa fuera la maza sin cantera.


Si no creyera en lo mas duro
si no creyera en el deseo
si no creyera en lo que creo
si no creyera en algo puro.

Si no creyera en cada herida
si no creyera en la que ronde
si no creyera en lo que esconde
hacerse hermano de la vida.

Si no creyera en quien me escucha
si no creyera en lo que duele
si no creyera en lo que queda
si no creyera en lo que lucha.

CORO:

Que cosa fuera
Que cosa fuera la maza sin cantera
un amasijo hecho de cuerdas y tendones
un revoltijo de carne con madera
un instrumento sin mejores resplandores
que lucecitas montadas para escena
que cosa fuera -corazon- que cosa fuera
que cosa fuera la maza sin cantera
un testaferro del traidor de los aplausos
un servidor de pasado en copa nueva
un eternizador de dioses del ocaso
jubilo hervido con trapo y lentejuela
que cosa fuera -corazon- que cosa fuera
que cosa fuera la maza sin cantera
que cosa fuera -corazon- que cosa fuera
que cosa fuera la maza sin cantera.

Cualquier comentario al correo peque_jingo@hotmail.com
Versión 4 - la Maza (Tablatura para guitarra (TAB))
lam         500550          RE9/FA#  200230      RE/FA  200232
mi/lam      400450          Fa       133211      MI     022100
solm        300330          Do/Mi    002201      MI7    023130

SOL         355433          LAm      002210

                                  INTRO  ***

         LAm           Mi/lam         SOLm       RE/FA#          FA


E|------5--------------4-------------3-------------2-----------1---------|
A|-----------------------------------------------------------------------|
D|--------------7-6-5---------------------5-4-3---------------------3-2-1|
G|---------5------------4----4--------3--------------2---2-------2-------|
B|----------5-------------5----5-------3--------------3---3-------1------|
e|-----------0-------------0-----0------0--------------0---0-------------|



        DO/MI             D/F#         MI         MI7


E|--0---------------------2------------0---------------------|
A|-------------------------------------------------2---------|
D|----2-------------2-------0------0---------------3---------|
G|------2---------2----------2-----2------1---1--------------|
B|--------0-----0-------------3----3-----2---2-----3---------|
e|----------1p0----------------2---2---0----0----------------|



       LAm           Mi/lam         SOLm       RE/FA#          FA


E|------5--------------4-------------3-------------2-----------1---------|
A|-----------------------------------------------------------------------|
D|--------------7-6-5---------------------5-4-3---------------------3-2-1|
G|---------5------------4----4--------3--------------2---2-------2-------|
B|----------5-------------5----5-------3--------------3---3-------1------|
e|-----------0-------------0-----0------0--------------0---0-------------|



        DO/MI             D/F#         MI         MI7     MI    MI7


E|--0---------------------2------------0-----------------0-------------|
A|-------------------------------------------------2--------------2----|
D|----2-------------2-------0------0---------------3--------------3----|
G|------2---------2----------2-----2------1---1-------------1--1-------|
B|--------0-----0-------------3----3-----2---2-----3-------2--2---3----|
e|----------1p0----------------2---2---0----0------------0---0---------|

       LAm                     SOL   FA   MI      MI7

E|-------------------------------3----1---0---0---------------|
A|---0---------0-----------------------------------2----------|
D|-------------------------------------------------3----------|
G|-----2--2------2---2-----------4----2-----1----1-3----------|
B|------1--1-------1--1----------3----1----2----2-------------|
e|-------0--0-------0---0--------3----1---0----0--------------|




SE TOCA IGUAL QUE EL INTRO PERO SIN LOS BAJOS EN LAS NOTAS QUE
VAN LOS BAJOS AUMENTAS UN TIEMPO

        LAm           MI/LA
1)
     Si no creyera en la locura
         SOLm            RE9/FA#
      de la garganta del sinsonte
          FA              DO/MI
     si no creyera que en el monte
        RE/FA               MI MI7
     se esconde el trino y la pavura.




se repite lo anterior


1)Si no creyera en la balanza
en la razón del equilibrio
si no creyera en el delirio
si no creyera en la esperanza.

1)Si no creyera en lo que agencio
si no creyera en mi camino
si no creyera en mi sonido
si no creyera en mi silencio.




    MI        MI7
2)Que cosa fuera
MI       MI7       LAm      REm
Que cosa fuera la maza sin cantera
LAm         SOL-FA         MI-MI7
 un amasijo hecho de cuerdas y tendones
     MI-MI7          LAm     REm
un revoltijo de carne con madera
LAm        SOL-FA    MIm    MI7
 un instrumento sin mejores resplandores
MI   -MI7       LAm           REm
que lucecitas montadas para escena
LAm          SOL-FA    MIm   MI7
 que cosa fuera -corazon- que cosa fuera
MI   -MI7       LAm          REm
que cosa fuera la maza sin cantera
Am        SOL-FA    MIm   MI7
 un testaferro del traidor de los aplausos
MI   -MI7       LAm            REm
un servidor de pasado en copa nueva
LAm          SOL-FA    MIm   MI7
 un eternizador de dioses del ocaso
MI   -MI7          LAm           REm
jubilo hervido con trapo y lentejuela
LAm         SOL-FA    MIm   MI7
 que cosa fuera -corazon- que cosa fuera
MI   -MI7        LAm          REm
que cosa fuera la maza sin cantera
LAm         SOL-FA    MIm   MI7
 que cosa fuera -corazon- que cosa fuera
 MI   -MI7        LAm          REm
que cosa fuera la maza sin cantera.


1)Si no creyera en lo mas duro
si no creyera en el deseo
si no creyera en lo que creo
si no creyera en algo puro.

1)Si no creyera en cada herida
si no creyera en la que ronde
si no creyera en lo que esconde
hacerse hermano de la vida.

1)Si no creyera en quien me escucha
si no creyera en lo que duele
si no creyera en lo que queda
si no creyera en lo que lucha.


2)Que cosa fuera
Que cosa fuera la maza sin cantera
un amasijo hecho de cuerdas y tendones
un revoltijo de carne con madera
un instrumento sin mejores resplandores
que lucecitas montadas para escena
que cosa fuera -corazon- que cosa fuera
que cosa fuera la maza sin cantera
un testaferro del traidor de los aplausos
un servidor de pasado en copa nueva
un eternizador de dioses del ocaso
jubilo hervido con trapo y lentejuela
que cosa fuera -corazon- que cosa fuera
que cosa fuera la maza sin cantera
que cosa fuera -corazon- que cosa fuera
que cosa fuera la maza sin cantera.
Versión 5 - la Maza (Letra y acordes)
Transcripción: Unicornio (uniccornio@hotmail.com)



ACORDES

Am:      5xx550,   En el estribillo: x02210
E/G#:    4xx450
Gm6:     3xx330
D/F#:    2xx230
F7M:     1xx210
C/E:     0x2010
E7b9:    056460
E7b9(*): 023130
G:       320003
F:       133211
Dm:      xx0230




INTRO:  | Am | E/G# | Gm6 | D/F# | F7  | C/E | D/F# | E7b9  E7b9(*) |
        | Am | E/G# | Gm6 | D/F# | F7  | C/E | D/F# | E7b9  E7b9(*) |
        | E7b9  E7b9(*) | Am | /  /  G  F | E7b9  E7b9(*) |
        | Am | % | % | % |


  Am                   E/G#
A)Si no creyera en la locura
Gm6                  D/F#
de la garganta del sinsonte
F7                      C/E
si no creyera que en el monte
D/F#                      E7b9  E7b9(*)
se esconde el trino y la pavura

A)Si no creyera en la balanza
en la razón del equilibrio
si no creyera en el delirio
si no creyera en la esperanza

A)Si no creyera en lo que agencio
si no creyera en el camino
si no creyera en el sonido
si no creyera en mi silencio
E7b9     E7b9(*)
qué cosa fuera

  E7b9     E7b9(*)  Am          Dm
B)que cosa fuera la maza sin cantera
Am    G    F        E7b9        E7b9(*)
un amasijo hecho de cuerdas y tendones

B)un revoltijo de carne con madera
un instrumento sin mejores resplandores

B)qué lucecitas montadas para escena
qué cosa fuera, corazón, qué cosa fuera

B)qué cosa fuera la maza sin cantera
un testaferro del traidor de los aplausos

B)un servidor de pasado en copa nueva
un eternizador de dioses del ocaso

B)júbilo hervido con trapo y lentejuela
qué cosa fuera, corazón, qué cosa fuera

B)qué cosa fuera la maza sin cantera

A)si no creyera en lo más duro
si no creyera en el deseo
si no creyera en lo que creo
si no creyera en algo puro

A)Si no creyera en cada herida
si no creyera en la que ronde
si no creyera en lo que esconde
hacerse hermano de la vida

A)Si no creyera en quien me escucha
si no creyera en lo que duele
si no creyera en lo que quede
si no creyera en lo que lucha
E7b9     E7b9(*)
qué cosa fuera

B)que cosa fuera la maza sin cantera
un amasijo hecho de cuerdas y tendones

B)un revoltijo de carne con madera
un instrumento sin mejores resplandores

B)qué lucecitas montadas para escena
qué cosa fuera, corazón, qué cosa fuera

B)qué cosa fuera la maza sin cantera
un testaferro del traidor de los aplausos

B)un servidor de pasado en copa nueva
un eternizador de dioses del ocaso

B)júbilo hervido con trapo y lentejuela
qué cosa fuera, corazón, qué cosa fuera

B)qué cosa fuera la maza sin cantera
qué cosa fuera, corazón, qué cosa fuera

B)qué cosa fuera la maza sin cantera
Versión 6 - la Maza (Letra y acordes)
ACORDES UTILIZADOS (Notas al final)

  LAm  MI/SOL#1 RE/FA#1 MI/SOL#  RE/FA#   MI  SOL   FA

E--0-----0--------0-------4--------2-------0---3----1---
B--1-----5--------3-------5--------3-------0---0----1---
G--2-----4--------2-------4--------2-------1---0----2---
D--2-----x--------x-------x--------x-------2---0----3---
A--0-----x--------x-------x--------x-------2---2----3---
E--0-----4--------2-------2--------2-------0---3----1---

INTRODUCCION

 LAm             MI/SOL#(1)               RE/FA#(1)

E------0-------------0---------------------------0-------
B----------------------5-------3--------------3-----3----
G----2---2--1--0---------4--------0----------------------
D------------------------------------4--2----------------
A--0-----------------------------------------------------
E-----------------4---------3--------------2-------------



              MI                            RE/FA#

E---------------------------1--0--------------------2----
B----1-------------------0--------3-----3--------3--3----
G---------------------1--------------0-----0--------2----
D------3--2--0-----2-------------------------------------
A--------------------------------------------------------
E--1------------0-----------------------------2----------



  MI                                           LAm

E--------------1--0-----||-------------1--0--------------
B-----------0--------3--||----------0--------3-----------
G--------1--------------||-------1--------------------2--
D-----2-----------------||----2--------------------2-----
A-----------------------||----------------------0--------
E--0--------------------||--0----------------------------
                      2x


           LAm               SOL      FA       MI

E-----0--------------0-----------------------------------
B--1-----1--------1-----1-----------0--------1--------0--
G--------------2-----------2-----0--------2--------1-----
D--------------------------------------------------------
A-----------0--------------------------------------------
E-----------------------------3--------1--------0--------



           LAm

E--1--0--------0--0--0-----0--0--0-----0--0--0-----------
B--------3-----------------------------------------------
G--------------------------------------------------------
D--------------------------------------------------------
A-----------0-----------0-----------0--------------------
E--------------------------------------------------------


   LAm                 MI/SOL#
A)Si no creyera en la locura
 SOL                RE/FA#
de la garganta del sinsonte
 FA                  DO/MI
si no creyera que en el monte
 RE/FA#                    FAD-SOL#d
se esconde el trino y la pavura.

A)Si no creyera en la balanza
en la razón del equilibrio
si no creyera en el delirio
si no creyera en la esperanza.

A)Si no creyera en lo que agencio
si no creyera en mi camino
si no creyera en mi sonido 
si no creyera en mi silencio.

   FAD       SId7
B)Que cosa fuera
 FAD  SOL#d           LAm      LA4 LAm
Que cosa fuera la maza sin cantera
     SOL           FA      FAD     SOL#d
un amasijo hecho de cuerdas y tendones
 FAD SOL#d         LAm        LA4·LAm
un revoltijo de carne con madera
 SOL          FA     FAD          SOL#d
un instrumento sin mejores resplandores
 FAD  SOL#d    LAm             LA4 LAm
que lucecitas montadas para escena
       SOL      FA   FAD           SOL#d
que cosa fuera -corazon- que cosa fuera
 FAD     SOL#d        LAm         LA4
que cosa fuera la maza sin cantera
 LAm     SOL     FA      FAD          SOL#d
un testaferro del traidor de los aplausos
 FAD   SOL#d      LAm       LA4     LAm
un servidor de pasado en copa nueva
      SOL    FA     FAD         SOL#d
un eternizador de dioses del ocaso
 FAD     SOL#d     LAm        LA4   LAm
jubilo hervido con trapo y lentejuela
          SOL      FA  FAD         SOL#d    
que cosa fuera -corazon- que cosa fuera
 FAD  SOL#d        LAm       LA4  LAm
que cosa fuera la maza sin cantera
        SOL     FA   FAD         SOL#d
que cosa fuera -corazon- que cosa fuera
 FAD   SOL#d         LAm          LA4
que cosa fuera la maza sin cantera.


A)Si no creyera en lo mas duro
si no creyera en el deseo
si no creyera en lo que creo
si no ceyera en algo puro.

A)Si no creyera en cada herida
si no creyera en la que ronde
si no creyera en lo que esconde
hacerse hermano de la vida.

A)Si no creyera en quien me escucha
si no creeyera en lo que duele
si no creyera en lo que queda
si no creyera en lo que lucha.

B)Que cosa fuera...


NOTAS:

Los acordes MI/SOL#1 Y RE/FA#1 corresponden a los acordes
MI/SOL# Y RE/FA#, simplemente los escribo con el fin de dejar
En claro que al autor de la cancion no presiona la primera
Cuerda sino que la toca al aire.
Versión 7 - la Maza (Letra y acordes)
INTRO.

     Am          E/G#              G              D/F#
e|-----2-----------------0--------------------------------0----------|
b|-------------------3-----(3)---------3--------------3-----(3)------|
g|--(2)--2-1-0-----4---4------(4)----0---0----------2---2------(2)---|
D|-----------------------------------------4-3-----------------------|
A|-0-----------------------------------------------------------------|
E|---------------4-----------------3--------------2------------------|

  Am/F          Em                  F#      D/F#   Em
e|-------------------1h0---------------------0----------1h0----------|
b|-----1------------0----0---0---------3-----3----------------3------|
g|---2-------------0-------0---------2---2---2--------0-------2------|
D|-------3-2-0----2------------2-------------0------2----------------|
A|-------------------------------------------x-----------------------|
E|-1------------0-------------------2--------2-----0----------1------|

     Am          E/G#              G              D/F#
e|-----2-----------------0--------------------------------0----------|
b|-------------------3------3----------3--------------3------3-------|
g|--(2)--2-1-0-----4---4-------4-----0---0----------2---2-------2----|
D|-----------------------------------------4-3-----------------------|
A|-0-----------------------------------------------------------------|
E|---------------4-----------------3--------------2------------------|

  Am/F          Em                  F#      D/F#   Em
e|-------------------1h0---------------------0-------1h0-------------|
b|-----1------------0----0---0---------3-----3-------------3---------|
g|---2-------------0-------0---------2---2---2-----0-------2---------|
D|-------3-2-0----2------------2-------------0---2-------------------|
A|-------------------------------------------x-----------------------|
E|-1------------0-------------------2--------2--0----------1---------|

   Am        D/F   Am            Am        G    F     Em
e|------1h0-----------0-1-----0-------0---------------------1h0------|
b|-----------3-------1----1---------1-----------------------------3--|
g|----0------2------2-------2-----2-----2----0----0-------0-------2--|
D|--2---------------------------------------------------2------------|
A|----------------0--------------0-----------------------------------|
E|-0---------1-----------------------------3----1-----0-----------1--|

    Am
e|-----0---0---0-------0---0--0---------0---0--0--------0---0---0----|
b|-----------1-(1)----------1-(1)-------------1-(1)-----------1-(1)--|
g|---2---2-----------2---2------------2---2-----------2---2----------|
D|-------------------------------------------------------------------|
A|-0---------------0----------------0---------------0----------------|
E|-------------------------------------------------------------------|

   Am                  E/G#                 G
e|-----0---0---0---------------0-----0--------------0----------------|
b|-----------1--(1)--------3-----4--------------3-------3------------|
g|---2---2---------------4---4-----3---4------0---0---0---0----------|
D|-------------------------------------------------------------------|
A|-0-----------------------------------------------------------------|
E|---------------------4--------------------3------------------------|
Si no creyera en la locura                 de la garganta del sin - -


   D/F#                 Am/F                    Em
e|---------0--------------------0--------------------1h0-----------|
b|-----3------3----3--------1--------1---1----------0----0---0-----|
g|---2---2-------2---2----2---2----2---2-----------0-------0-------|
D|------------------------------------------------2------------2---|
A|-----------------------------------------------------------------|
E|-2--------------------1-----------------------0------------------|
--sonte                 si no creyera que en el monte


   D/F#    D/F#              Em
e|----------0---------------------1h0-------------|
b|----3-----3---------------------------3---------|
g|--2---2---2-------------------0-------2---------|
D|----------0-----------------2-------------------|
A|----------x-------------------------------------|
E|-2--------2----------------0----------1---------|
   se esconde el trino y la pavura.

   Am                  E/G#                 G
e|-----0---0---0---------------0-----0--------------0----------------|
b|-----------1--(1)--------3-----4--------------3-------3------------|
g|---2---2---------------4---4-----3---4------0---0---0---0----------|
D|-------------------------------------------------------------------|
A|-0-----------------------------------------------------------------|
E|---------------------4--------------------3------------------------|
  Si no creyera en la balanza               en la razón del equi- - -

   D/F#                 Am/F                    Em
e|---------0---------------------0--------------------1h0-----------|
b|-----3------3----3---------1--------1---1----------0----0---0-----|
g|---2---2-------2---2-----2---2----2---2-----------0-------0-------|
D|-------------------------------------------------2------------2---|
A|------------------------------------------------------------------|
E|-2---------------------1-----------------------0------------------|
--librio                 si no creyera en el delirio

   D/F#    D/F#         Em
e|----------0----------------1h0-------------|
b|----3-----3----------------------3---------|
g|--2---2---2--------------0-------2---------|
D|----------0------------2-------------------|
A|----------x--------------------------------|
E|-2--------2-----------0----------1---------|
   si no creyera en la esperanza.


   Am                  E/G#                 G
e|-----0---0---0-----------------0-----0--------------6------------|
b|-----------1--(1)----------3-----4--------------3-------3--------|
g|---2---2-----------------4---4-----3---4------0---0---0---0------|
D|-----------------------------------------------------------------|
A|-0---------------------------------------------------------------|
E|-----------------------4--------------------3--------------------|
Si no creyera en lo que agencio            si no creyera en mi cami- -


   D/F#                 Am/F                    Em
e|---------0---------------------0--------------------1h0-----------|
b|-----3------3----3---------1--------1---1----------0----0---0-----|
g|---2---2-------2---2-----2---2----2---2-----------0-------0-------|
D|-------------------------------------------------2------------2---|
A|------------------------------------------------------------------|
E|-2---------------------1-----------------------0------------------|
- no                     si no creyera en mi sonido

   D/F#     D/F#  Em      D/F   Em          D/F   Em        D/F
e|----------0-------1h0------------1h0--------------1h0--------------|
b|----3-----3-------------3-----------------3---------------3--------|
g|--2---2---2-----0-------2-------0---------2------0--------2--------|
D|----------0---2----------------2----------------2------------------|
A|----------x--------------------------------------------------------|
E|-2--------2--0----------1-----0-----------1-----0---------1--------|
  si no creyera en mi silencio.   Que cosa fuera   Que cosa fuera la

Am
maza sin cantera
    G       F       E             Dm6   E
un amasijo hecho de cuerdas y tendones
        Dm6     Am
un revoltijo de carne con madera
         G     F     E             Dm6  E
un instrumento sin mejores resplandores
         Dm6     Am
que lucecitas montadas para escena
         G      F    E             Dm6 Fdim/E Dm6  EMPIEZA EL RASGUEO
que cosa fuera  corazón  que cosa fuera
                  Am
que cosa fuera la maza sin cantera
         G    F      Bdim          Dm6    Fdim/E  Dm6
un testaferro del traidor de los aplausos
                 Am
un servidor de pasado en copa nueva
       G     F    Bdim       Dm6   Fdim/E  Dm6
un eternizador de dioses del ocaso
                   Am
jubilo hervido con trapo y lentejuela
           G     F   E            Dm6   Fdim/E  Dm6
que cosa fuera  corazón  que cosa fuera
                  Am
que cosa fuera la maza sin cantera
           G     F   Bdim         Dm6   Fdim/E  Dm6
que cosa fuera  corazón  que cosa fuera
   Am
la maza sin cantera.

G  F  Fdim/E  Dm6  Fdim/E  Dm6  Am  Dm/A  G F Fdim/E Dm6

AQUI SE VA CON PIANO PERO LE PODEMOS PONER EL PUNTEO
QUE ESTÁBAMOS LLEVANDO.

e|-----0---0---0-----------------0-----0--------------0------------|
b|-----------1--(1)----------3-----4--------------3-------3--------|
g|---2---2-----------------4---4-----3---4------0---0---0---0------|
D|-----------------------------------------------------------------|
A|-0---------------------------------------------------------------|
E|-----------------------4--------------------3--------------------|
Si no creyera en lo mas duro                si no creyera en el des-

e|---------0---------------------0--------------------1h0-----------|
b|-----3------3----3---------1--------1---1----------0----0---0-----|
g|---2---2-------2---2-----2---2----2---2-----------0-------0-------|
D|-------------------------------------------------2------------2---|
A|------------------------------------------------------------------|
E|-2---------------------1-----------------------0------------------|
- eo                     si no creyera en lo que creo

e|----------0-------1h0-------------|
b|----3-----3-------------3---------|
g|--2---2---2-----0-------2---------|
D|----------0---2-------------------|
A|----------x-----------------------|
E|-2--------2--0----------1---------|
   si no creyera en algo puro.

e|-----0---0---0--------------0-----0-----------0------------|
b|-----------1--(1)-------3-----4-----------3-------3--------|
g|---2---2--------------4---4-----3---4---0---0---0---0------|
D|-----------------------------------------------------------|
A|-0---------------------------------------------------------|
E|--------------------4-----------------3--------------------|
Si no creyera en cada herida             si no creyera en la que

e|---------0---------------------0--------------------1h0-----------|
b|-----3------3----3---------1--------1---1----------0----0---0-----|
g|---2---2-------2---2-----2---2----2---2-----------0-------0-------|
D|-------------------------------------------------2------------2---|
A|------------------------------------------------------------------|
E|-2---------------------1-----------------------0------------------|
   ronde              si no creyera en lo que esconde

e|----------0-------1h0-------------|
b|----3-----3-------------3---------|
g|--2---2---2-----0-------2---------|
D|----------0---2-------------------|
A|----------x-----------------------|
E|-2--------2--0----------1---------|
   hacerse hermano de la vida.

e|-----0---0---0------------------0-----0-----------0------------|
b|-----------1--(1)-----------3-----4-----------3-------3--------|
g|---2---2------------------4---4-----3---4---0---0---0---0------|
D|---------------------------------------------------------------|
A|-0-------------------------------------------------------------|
E|------------------------4-----------------3--------------------|
Si no creyera en quien me escucha si no creyera en lo que


e|---------0---------------------0--------------------1h0-----------|
b|-----3------3----3---------1--------1---1----------0----0---0-----|
g|---2---2-------2---2-----2---2----2---2-----------0-------0-------|
D|-------------------------------------------------2------------2---|
A|------------------------------------------------------------------|
E|-2---------------------1-----------------------0------------------|
   duele                 si no creyera en lo que quede

e|----------0-------1h0---------|
b|----3-----3-------------3-----|
g|--2---2---2-----0-------2-----|
D|----------0---2---------------|
A|----------x-------------------|
E|-2--------2--0----------1-----|
  si no creyera en lo que lucha.

E        Bdim   E        Bdim     Am
Que cosa fuera, que cosa fuera la maza sin cantera
    G       F       E             Dm6   Fdim/E
un amasijo hecho de cuerdas y tendones
        Dm6     Am
un revoltijo de carne con madera
         G     F     E             Dm6  Fdim/E
un instrumento sin mejores resplandores

         Dm6     Am
que lucecitas montadas para escena
         G      F    E             Dm6 Fdim/E Dm6
                  Am
que cosa fuera la maza sin cantera
         G    F      Bdim          Dm6    Fdim/E  Dm6
un testaferro del traidor de los aplausos
                 Am
un servidor de pasado en copa nueva
       G     F    Bdim       Dm6   Fdim/E  Dm6
un eternizador de dioses del ocaso
                   Am
jubilo hervido con trapo y lentejuela
           G     F   E            Dm6   Fdim/E  Dm6
que cosa fuera  corazón  que cosa fuera
                  Am
que cosa fuera la maza sin cantera
           G     F   Bdim         Dm6   Fdim/E  Dm6
que cosa fuera  corazón  que cosa fuera
                  Am                G  F  E  Dm6
Que cosa fuera la maza sin cantera.

            E A D G B E
Am            0 0 2 2 1 0
E/G#            4 X X 4 5 0
G            3 2 0 0 3 3   3 5 5 4 3 3
D/F#            2 X 0 2 3 0
Am/F            1 X 0 2 1 0
Em             0 2 2 0 0 0
Bdim            0 2 3 1 3 X
Dm6            X 2 3 2 3 X
Fdim/E            X 2 2 1 0 1
F            1 3 3 2 1 1
Dm/A            X 2 0 2 3 1
DUDAS Y/O COMENTARIOS POR FAVOR ESCRIBIR A alfa_omega22@hotmail.com
GRACIAS.

El material contenido en esta página es para exclusivo uso privado y con propósito meramente educativo, se prohibe su reproducción y uso con fines comerciales