Volar

Tabs, letra y acordes de 'Volar' por Dolores Delirio

Versiones disponibles: Tablatura para guitarra (TAB) - Letra y acordes

No tengo la canción disponible pero aqui les va el
orden que me acuerdo:

Los Acordes son:  A - E

El punteo es:

e|------------|
B|-5--4-5-4---|
G|----------4-|
D|------------|
A|------------|
E|------------|

e|-6-6-6-5-5-5-4-4-4-------|
B|-------------------5-7-5-|
D|-------------------------|
A|-------------------------|
E|-------------------------|

e|------------|----------------|
B|-5--4-5-4---|-9-7-5--4-5-4---|
G|----------4-|--------------4-|
D|------------|----------------|
A|------------|----------------|
E|------------|----------------|

y el solo es asi:

e|-----------------------------------|
B|-4-4-4-5-7--4-4-4-5-7--4-4-4-5-4---|
G|---------------------------------4-|
D|-----------------------------------|
A|-----------------------------------|
E|-----------------------------------|

e|-11-11-11-12-14--11-11-11-12-14--11-11-11-12-11----|
B|------------------------------------------------12-|
G|---------------------------------------------------|
D|---------------------------------------------------|
A|---------------------------------------------------|
E|---------------------------------------------------|

e|-16-16-14-12-------------------------|
B|-------------12-12-16-16-14-12-------|
G|-------------------------------13-13-|
D|-------------------------------------|
A|-------------------------------------|
E|-------------------------------------|
Versión 2 - Volar (Letra y acordes)
Casi toda la canción son dos acordes. Ahí les va.

A-E

           A
Tu ventana es la orilla del ojo
E
Ojo del dios del viento
Puedes ver la ciudad
Sus luces y sus sombras
Hoy has soñado en volar
Hoy has soñado en volar

Y mientras miras el paisaje
Quieres tocarla en un instante
Si es la única prueba de amor
Que faltó por darle
Hoy has pensado en volar
Hoy has pensado en volar

C5-B5
C5-B5

     A
Pasaron horas de tormenta
     E
Pasaron dias de dolor
Creció el valor
Y de amor creyó tener alas
Hoy has aprendido a volar
Hoy has aprendido a volar
Volar, volar, volar, has aprendido a volar

C5-B5
C5-B5

A-E (cuantas veces sea necesario)

El material contenido en esta página es para exclusivo uso privado y con propósito meramente educativo, se prohibe su reproducción y uso con fines comerciales