Locura

Tabs, letra y acordes de 'Locura' por Dolores Delirio

Versiones disponibles: Tablatura para guitarra (TAB) - Letra y acordes - Tablatura para bajo (bass tab)

La Intro es asi:

(1)
e|-5--3-2-2-2-2-2-3--------------------------------------2-3-2-3-|
B|------------------5--3-2-2-2-2-2-3-5-5-3-3-2-3-5-5-3-3---------|

(2)
e|-5--3-2-2-2-2-2-3-7-7-5-5-7-7-5-5-7-5-7-10-10-------10-10-------10----10-10-|
B|----------------------------------------------10-10-------10-10----10-------|

Y despues en el coro solo se repite la primera parte de el solo.
En los versos la segunda guitarra toca los acordes pero en un arpegio variado y rapido.


           C        Bm
  Te confesé mis verdades
  A        Bm
  Y no te miento
            C          Bm
  Nuestras soledades, nuestros odios
  A                          Bm
  Nuestros gritos, nuestra locura
              C        Bm
  Perdidos en la ciudad
           A                          Bm
  Calles suben y van y dan a ninguna parte

e|-5--3-2-2-2-2-2-3--------------------------------------2-3-2-3-|
B|------------------5--3-2-2-2-2-2-3-5-5-3-3-2-3-5-5-3-3---------|
D   A   Bm   G

              D
  Así es el camino
         A
  Camino del que huye, eh
             Bm
  Pasado que olvidamos
               G
  Pasado que no borramos
            D          A          Bm    G
  Son lágrimas que ya no lloramos


C   Bm   A   Bm


         C           Bm
  Te amaré por esta noche
  A             Bm
  Y mañana volveré
            C
  Pienso que es mejor así
        Bm
  Que besar por siempre
               A      Bm
  Y no amar jamás
          C             Bm
  Buscándote entre las bestias
            A                      Bm
  Sin entender que no hay nadie perfecto

e|-5--3-2-2-2-2-2-3--------------------------------------2-3-2-3-|
B|------------------5--3-2-2-2-2-2-3-5-5-3-3-2-3-5-5-3-3---------|
D   A   Bm   G

                   D
  Por eso es que huí
          A
  Por no ser dios
               Bm
  Por eso estás aquí
              G
  Por no ser vírgen
           D                A
  Por eso hoy, hoy estamos así
                Bm                       G
  Por no estar solos, por, por no estar solos



D - A - Bm - G (las veces que sea necesario)

C
                                             Ronald
                                             http://perurock.8m.net
Versión 2 - Locura (Letra y acordes)
LOCURA


D - A - Bm - G  (las veces que sea necesario)


           C        Bm 
  Te confesé mis verdades
  A        Bm 
  Y no te miento
            C          Bm
  Nuestras soledades, nuestros odios
  A                          Bm
  Nuestros gritos, nuestra locura ah, ah, ah
              C        Bm
  Perdidos en la ciudad
           A                          Bm
  Calles suben y van y dan a ninguna parte, eh


D - A - Bm - G


              D 
  Así es el camino
         A
  Camino del que huye, eh
             Bm
  Pasado que olvidamos
               G
  Pasado que no borramos
            D          A          Bm    G  
  Son lágrimas que ya no lloramos


C - Bm - A - Bm  (arpegio en esas notas)


         C           Bm
  Te amaré por esta noche
  A             Bm
  Y mañana volveré
            C
  Pienso que es mejor así
        Bm 
  Que besar por siempre
               A      Bm
  Y no amar jamás
          C             Bm 
  Buscándote entre las bestias
            A                      Bm
  Sin entender que no hay nadie perfecto


D - A - Bm - G


                   D
  Por eso es que huí
          A
  Por no ser dios
               Bm
  Por eso estás aquí
              G  
  Por no ser vírgen
           D                A 
  Por eso hoy, hoy estamos así
                Bm                       G 
  Por no estar solos, por, por no estar solos
   


D - A - Bm - G (las veces que sea necesario)

C
Versión 3 - Locura (Tablatura para bajo (bass tab))
Weno amigoz aqui 1muy wena zong d dolores delirio
ezpero q lez uzte xq zt 100%correcta y dizfrutenla

INTRO:
G-------------------
D-------------------
A-5555555555555555--  (ezto ez opzional)
E-------------------

G-------------------------------------
D-------------------------------------
A-55555555----------------------------  <--ZOLO EZTO X2
E----------55555555-77777777-33333333-

VERZO:"Te confesé mis verdades..."
G-------------------------------------
D-------------------------------------
A-33333333-22222222-------------------  X3
E-------------------55555555-77777777-

ZILENCIO:
G-------------------------------------
D-------------------------------------
A-55555555----------------------------
E----------55555555-77777777-33333333-

VERZO:"Así es el camino..."
G-------------------------------------
D-------------------------------------
A-55555555----------------------------  X2
E----------55555555-77777777-33333333-

ZILENCIO:
G-------------------------------------
D-------------------------------------
A-33333333-22222222-------------------
E-------------------55555555-77777777-

VERZO:"Te amaré por esta noche..."
G-------------------------------------
D-------------------------------------
A-33333333-22222222-------------------  X3
E-------------------55555555-77777777-

ZILENCIO:
G-------------------------------------
D-------------------------------------
A-55555555----------------------------
E----------55555555-77777777-33333333-

CORO:"Por eso es que huí..."
G-------------------------------------
D-------------------------------------
A-55555555----------------------------  X2
E----------55555555-77777777-33333333-

PARTE FINAL:
G-------------------------------------
D-------------------------------------
A-55555555----------------------------  X2
E----------55555555-77777777-33333333-

Zaludoz para mi banda Kremlin*PluzZ..xuxa
y para la promo 08 FF...
cualquier duda o comentario mi mzn ez ajpe_24@hot...

El material contenido en esta página es para exclusivo uso privado y con propósito meramente educativo, se prohibe su reproducción y uso con fines comerciales